Break Me Gently (ver2) Tab - Doves






------------------------------------------------------------------------
     BREAK ME GENTLY - The Doves
------------------------------------------------------------------------
Tabbed by: stef
Email: stef_tan-dodsnbev@powerup.com.au

Tuning: standard

e|-------4-]-------------4-]-----------------------|
B|-6-4-6---]-4-6-4-6-4-6---]repeat second bit-----|
G|---------]---------------]-----------------------|
D|---------]---------------]-----------------------|
A|---------]---------------]-----------------------|
E|---------]---------------]-----------------------|

Then this kicks in over the top:

C#mD#mE   D#m
e|-------4------6------x----------6----------------|
B|-------5------7------9----------7----------------|
G|-------6------8------9----------8----------------|
D|-------6------8------9----------8----------------|
A|-------4------6------7----------6----------------|
E|-------x------x------x(or 7)----6----------------|






Like us on Facebook