Catch The Sun Bass Tab - Doves






tabbed by leo bwatkins@blueyonder.co.uk

i like the doves, but this is by far their best song

no intro. just comes strait in with verse

/=slide


|----------------------------------|
|----------------------------------|
|----------------------------------|  x2
|--7-7-7-7-7-7-7-7-7-7-7-7-7-7-7-7-|

=

|----------------------------------------------|
|--------------------(9)--(9)------------------|
|--10--10--10-10-10----10---10----9--7-6-------|
|-----------------------------------------9-7--|
                                              =

                PLAY ALL BETWEEN THE = SIGNS FOR VERSE



chorus

|--------------------------------------------------|
|--------------------------------------------------|
|--------------5--5---5-------------5--7---7--5-7--|  x4
|--3--3-3/5--7------7---7--5--5-5-7----------------|


verse, chorus then interlude

interlude

|-----------------------------------------------------------------|
|-----------------------------------------------------------------|
|-----------------------------------------------------------------|  x2
|-7-7-7-7-7-7-7-7-7-7-7-7-7-7-7-7-7-7-7-7-7-7-7-7-7-7-7-7-7-7-7-7-|

|-----------------------------------------------------------------|
|-----------------------------------------------------------------|
|-7-7-7-7-7-7-7-7-7-7-7-7-7-7-7-7-7-7-7-7-7-7-7-7-7-7-7-7-7-7-7-7-|  x2
| ----------------------------------------------------------------|


|------------------------------------------------------|
|------------------------------------------------------|
|-8-8-8-8-x2-10-10-10-10-x2----------------------------|            
|---------------------------10-10-10-10-x2--8-8-8-8-x2-|
                                                   get it?



hopits right see ya









Like us on Facebook