Here It Comes Chords - Doves






----------------------------------------------------------
        HERE IT COMES - The Doves
----------------------------------------------------------
Tabbed by: stef
Email: stef_tan-dodsnbev@powerup.com.au

Tuning: standard

Note: D#, F# & Fm are not standard formation



G#CmD#A#m(G#maj scale)

e|------4-------3------3-------6--------------------------|
B|------4-------4------4-------6--------------------------|
G|------5-------5------3-------7--------------------------|
D|------6-------5------5-------8--------------------------|
A|------6-------3------6-------8--------------------------|
E|------4-------3------x-------6--------------------------|


Then kicks into:

F#  x3FmD#m(C#maj scale)

e|------6---------------4------6--------------------------|
B|------7---------------6------7--------------------------|
G|------6---------------5------8--------------------------|
D|------8---------------3------8--------------------------|
A|------9---------------x------6--------------------------|
E|------x---------------x------6--------------------------|

Get into it!






Like us on Facebook