The Man Who Told Everything (ver2) Tab - Doves






This is the electric guitar part missing from Alex Mac's correct version...
It goes thruout the entire song in various parts.
Standard tuning
No capo er nuthin...

E-----------------------------------------|
B-9----9----9---9---9----9----8---8-------|
G--10---10---8---8---10---10---9---9------|
D----10---10--10--10---11---11--10--10----|
A-----------------------------------------|
E-----------------------------------------|

E-----------------------------------------|
B-9----9----9---9---9----9----8---8-------|
G--10---10---8---8---10---10---9---9------|
D----10---10--10--10---11---11--10--10----|
A-----------------------------------------|
E-----------------------------------------|


JC
info@jeffcampbellmusic.com






Like us on Facebook