Next Episode Intro Tab - Dr Dre






Next EpisodeTabbed by:LUKE WINAND
Email:

Tuning:
INTRO:
e|---------------------------------------------------------------------------|
B|---------------------------------------------------------------------------|
G|---------------------------------------------------------------------------|
D|---------------------------------------------------------------------------|
A|-7--7-7--7-7--7-7--7------------7--7-7--7----------------------------------|
E|---------------------8--8-8--8---------------------------------------------|
Main Part: Repeat through the rest of the song accept for near the end.
e|---------------------------------------------------------------------------|
B|---------------------------------------------------------------------------|
G|---------------------------------------------------------------------------|
D|---9-9-7-9--7-5-7--7-5---5-------------------------------------------------|
A|-7---------------------7---------------------------------------------------|
E|---------------------------------------------------------------------------|
Near the end of the song they go back to the intro again

This is my fist tab, and Im not much into rap. That rap just has a catchy tune to it

| /  slide up
|   slide down
| h  hammer-on
| p  pull-off
| ~  vibrato
| +  harmonic
| x  Mute note
=========================================================================

ĂŽnscrie-te la newsletter


Like us on Facebook