Wit Dre Day Bass Tab - Dr Dre






ARTIST: DR DRE 
SONG: WIT DRE DAY 
ALBUM: THE CHRONIC 
TAB BY: JARED 
(THEMEFROMAJACKYL@YAHOO.COM) 
MAIN GROOVE                 FILL I 

G-----------------------||---------------------| 
D-----------------------||------------------3--| 
A-3--3-3----------------||-3--3-3--------------| 
E---------6/--4-3--3-6--||---------6/--4-3-----| 

FILL II                      FILL III 

G-------------------------||--------------------------| 
D------------------3------||--------------------------| 
A-3--3-3------------------||-3--3-3-------------------| 
E---------6/--4-3-----3-6-||---------6/--4-3--3-6^(3)-| 

FILL IV 

G------------------------------| 
D------------------------------| 
A-3--3-3-----------------------| 
E---------6/--3-3-4-4-5-5-6-6-| 

Those are all the main riffs, there are some changes off some 
of these but play along and you should get it 

XX1134XX 


ĂŽnscrie-te la newsletter


Like us on Facebook