Starfire (ver2) Bass Tab - Dragonforce






This is for!STANDARD TUNING!

(Come in at 1:21)
Verse
G---------------------------------------------------------------|
D---------------------------------------------------------------|
A-------5----7-----------------------------------3----7b-5------|
E-3--5-----5---9-7-5-3-5-7-9--9-5-7-5-3-5--3-5-7---3------7-5-3-|

Pre-Chorus Pt. 1 (when the cover of light)
G---------------------------------|
D---------------------------------|
A---------------------------------|
E-7-7-7-7-5-5-5-5-3-3-3-3-3-3-1-3-|

Pre-Chorus Pt. 2(Play with Guitar)
G---------------6-6-6-6------6-7-|
D--------7-7-7-7-----------7-----|
A-9-9-9-9----------------9-------|
E--------------------------------|

Chorus (start on Starfire)
G--------------------------------------|
D--------------------------------------| X2
A--------------------------------------|
E-7-7-7-7-5-5-5-5-3-3-3-3-3-3-1-353--|

Acoustic Solo
G---------------------------|
D-------------------7-9-7-9-|
A------5----------9---------|
E-5~~~~~-7-5-3--------------|

VERSE
PRE-CHORUS PT.1
PRE-CHORUS PT.2
CHORUS

Lead Solo
G--------------------------------|
D--------------------------------| X2
A----5-----------------7-5-------|
E-7------5/10-10-8-10------7-5-3-|

PRE-CHORUS PT.2
CHORUS

Outro
G-------|
D-------|
A-------|
E-9-7-5-|

This is my first tab, so please give a rating and some information at karlos3003@hotmail.com

ĂŽnscrie-te la newsletter


Like us on Facebook