Starfire Bass Tab - Dragonforce






DragonForce
Starfire
Standard tuning


Intro:  Come in  at roughly 1 min 13 seconds ('colour of night')

                'snow!!'
|--------------|------|
|--------------|------|
|-5----3----5--|-/15--|
|--------------|------|

Intro Pt 2:                               {PLAY FAST}
|------------------------|----------------543----------|
|------------------------|-------------------543-------|
|--------012-3-333-32----|--------012-3-3-------543----|
|-3-333---------------54-|-3-333--------------------54-|


Verse:
|--------------------------|----------------3----------|
|--------------------------|-----------------53--------|
|--------012-3-33----5-3-2-|--------012-3-3-----543----|
|-3-333--------------------|-3-333------------------54-|

|--------------------------|------------------3h5h3-------|
|------------------32------|------------------------53----|
|--------012-3-33----32----|--------012-3-3------------54-|
|-3-333--------------------|-3-333------------------------|


PreChorus:                    'snow!'
|----------------------------------|
|-------35-------------------------|
|-5-555---4-3-333-3/5-5-9-8-7-6/15-|
|----------------------------------|


PreChorus Pt2                    {PLAY FAST}
|--------------------------------------------|
|-------765-------345----------------53------|
|-77777-----55555-----33333-------35----53---|
|---------------------------1/3-5----------5-|

|----------------------------------------765-----------|
|-------765-------345------------------------765-------|
|-77777-----55555-----55555-/55555-55555---------765---|
|----------------------------------------------------7-|

Chorus:
        'starfire'         'high in the sky'
|------|--------------------------------|
|------|--------------------------------|
|------|-3-333------------55------------|
|-1--3-|-------5-55555555----1-33333333-|

'love'
|----------------------------------------|
|----------------------------------------|
|-3-333-------------------------3h5-5----|
|--------5-5555555--1-111-3-3h5-------54-|

'night'  'falls'
|-------------------------------------------------|
|-------------------------------------------------|
|-3-333------------5------------------------------|
|-------5-55555555---11/33-33-1-11113-3333-5-5555-|


ACOUSTIC SOLO - PLAY INTRO PT 2

REPEAT VERSE

REPEAT PRECHORUS PT 1 and 2

REPEAT CHORUS

Electric Solo: (follow the same rhythm as the verses)
|--------------------------------------|-------------------|
|--------------------------------------|-------------------|
|-------3h5-3----3-333-5p3----7p5------|---------7-6-54321-|
|-3-333-------5------------5p3-----7p5-|-3-333-5-----------|

|-------------------|--------------------|
|-------5-3---------|-------532----------|
|-3-333-----543-432-|-----------3-333-33-|
|-------------------|-3-333--------------|

OK i don't think this ending for the solo is what he actually plays but turn you're amp
loud enough so they can't hear the stereo and impress you're mates with this during the
part of the guitar solo: (You'll need to roll you're fingers over the fret board or it 
be quick enough)

                      {PLAY FAST}
|-------------------------------------9------------|
|-----------------------------------9----119-------|
|-543-654-765-876-987-987-1098-1110----------11109-|
|--------------------------------------------------|

REPEAT PRECHORUS PT 2

REPEAT CHORUS

FINISH:

|-------|
|-------|
|-------|
|-3-2-0-|

Enjoy!!

ĂŽnscrie-te la newsletter


Like us on Facebook