Through The Fire And Flames (ver5) Tab - Dragonforce






#----------------------------------PLEASE NOTE---------------------------------#
#This file is the author's own work and represents their interpretation of the #
#song. You may only use this file for private study, scholarship, or research. #
#------------------------------------------------------------------------------##

                         THROUGH THE FIRE AND THE FLAMES
                           As recorded by Dragonforce
                      (From the 2006 Album INHUMAN RAMPAGE)

Words and Music by Dragonforce
Arranged by Dragonforce
Transcribed by Rhythman

          C5                   Bb5                  G#5                  G5
      x 3 5 5 x x          x 1 3 3 x x          4 6 6 x x x          3 5 5 x x x

          F5                   Eb5                 Bb5VI
      1 3 3 x x x          x 6 8 8 x x          6 8 8 x x x

Gtr I (E A D G B E) - 'Rhythm (arranged for 2 guitars)'
Gtr II (E A D G B E) - 'Lead 1'
Gtr III (E A D G B E) - 'Lead 2'
Gtr IV (E A D G B E) - 'Acoustic + Keyboard'

   Intro
    Fast Rock Q=200
    C5
   4/4
    Gtr I
    Q       H.                         W
||-----------------------------------|---------------------------------|
||o----------------------------------|---------------------------------|
||--5--------------------------------|---------------------------------|
||--5--------------------------------|---------------------------------|
||o-3--------------------------------|---------------------------------|
||-----------------------------------|---------------------------------|
|
|   Gtr IV
|   S S S S S  S S S S S S S S S S S   S S S S S S S S S S S S S S S S
||-----------------------------------|-6-------------------------------|
||o--------------------------6-------|-----8---9---6---8-------6-------|
||--5---7---8----5---7---8-------7---|---------------------8-------7---|
||----5---5----5---5---5---5---5---5-|---5---5---5---5---5---5---5---5-|
||o----------------------------------|---------------------------------|
||-----------------------------------|---------------------------------|


  Q       H.                         W
|----------------------------------|------------------------------------|
|----------------------------------|------------------------------------|
|-5--------------------------------|------------------------------------|
|-5--------------------------------|------------------------------------|
|-3--------------------------------|------------------------------------|
|----------------------------------|------------------------------------|
|
| S S S S S  S S S S S S S S S S S   S S S S S S S S S S S S S S S S
|----------------------------------|-6----------------------------------|
|--------------------------6-------|-----8---9---6---8-------6----------|
|-5---7---8----5---7---8-------7---|---------------------8-------7------|
|---5---5----5---5---5---5---5---5-|---5---5---5---5---5---5---5---5----|
|----------------------------------|------------------------------------|
|----------------------------------|------------------------------------|


  1.
  Bb5
  W                                 +W
|---------------------------------|-----------------------------------|
|---------------------------------|-----------------------------------|
|-3-------------------------------|-(3)-------------------------------|
|-3-------------------------------|-(3)-------------------------------|
|-1-------------------------------|-(1)-------------------------------|
|---------------------------------|-----------------------------------|
|
| S S S S S S S S S S S S S S S S    S  S S S S S S S S S S S S S S S
|---------------------------------|--6--------------------------------|
|-------------------------6-------|-------8---9---6---8-------6-------|
|-5---7---8---5---7---8-------7---|-----------------------8-------7---|
|---5---5---5---5---5---5---5---5-|-----5---5---5---5---5---5---5---5-|
|---------------------------------|-----------------------------------|
|---------------------------------|-----------------------------------|


  Ab5                                G5
  Q       H.                         W
|----------------------------------|------------------------------------||
|----------------------------------|-----------------------------------o||
|----------------------------------|------------------------------------||
|-6--------------------------------|-5----------------------------------||
|-6--------------------------------|-5---------------------------------o||
|-4--------------------------------|-3----------------------------------||
|
| S S S S S  S S S S S S S S S S S   S S S S S S S S S S S S S S S S
|----------------------------------|-6----------------------------------||
|--------------------------6-------|-----8---9---6---8-------6---------o||
|-5---7---8----5---7---8-------7---|---------------------8-------7------||
|---5---5----5---5---5---5---5---5-|---5---5---5---5---5---5---5---5----||
|----------------------------------|-----------------------------------o||
|----------------------------------|------------------------------------||


  2.
  Ab5
  W                                 +W
|---------------------------------|-----------------------------------|
|---------------------------------|-----------------------------------|
|---------------------------------|-----------------------------------|
|-6-------------------------------|-(6)-------------------------------|
|-6-------------------------------|-(6)-------------------------------|
|-4-------------------------------|-(4)-------------------------------|
|
| S S S S S S S S S S S S S S S S    S  S S S S S S S S S S S S S S S
|---------------------------------|--6--------------------------------|
|-------------------------6-------|-------8---9---6---8-------6-------|
|-5---7---8---5---7---8-------7---|-----------------------8-------7---|
|---5---5---5---5---5---5---5---5-|-----5---5---5---5---5---5---5---5-|
|---------------------------------|-----------------------------------|
|---------------------------------|-----------------------------------|


  G5
  Q       H.                         E.     S E.     S E.    S Q
|----------------------------------|-------------------------------------||
|----------------------------------|-------------------------------------||
|----------------------------------|-------------------------------------||
|-5--------------------------------|-5--------5--------5-----------------||
|-5--------------------------------|-5--------5--------5-----------------||
|-3--------------------------------|-3--------3--------3-----------------||
|
| S S S S S  S S S S S S S S S S S   S  S S S S  S S S S S S S S S S S
|----------------------------------|-6-----------------6h8p6-------------||
|--------------------------6-------|----8------------8-------8-------8---||
|-5---7---8----5---7---8-------7---|------8-5----5h8-----------8-5-8-----||
|---5---5----5---5---5---5---5---5-|----------5--------------------------||
|----------------------------------|-------------------------------------||
|----------------------------------|-------------------------------------||


  C5
  Gtr II
   S  S  S  S S S  S  S  S  S S S  S  S S S
|-11-11-11-11-8-8-11-11-11-11-8-8-11-11-8-8-|
|-------------------------------------------|
|-------------------------------------------|
|-------------------------------------------|
|-------------------------------------------|
|-------------------------------------------|
|
| Gtr III
|  S  S  S  S S S  S  S  S  S S S  S  S S S
|-------------------------------------------|
|-13-13-13-13-8-8-13-13-13-13-8-8-13-13-8-8-|
|-------------------------------------------|
|-------------------------------------------|
|-------------------------------------------|
|-------------------------------------------|
|
| Gtr I
|        PM----------------------------------
|  E     S  S S S  S  S  S  S S S  S  S S S
|-------------------------------------------|
|-------------------------------------------|
|-------------------------------------------|
|--5----------------------------------------|
|--3-----3--3-3-3--3--3--3--3-3-3--3--3-3-3-|
|-------------------------------------------|


   S  S  S  S S S  S  S  S  S S S  S  S S S
|-11-11-11-11-8-8-11-11-11-11-8-8-11-11-8-8--|
|--------------------------------------------|
|--------------------------------------------|
|--------------------------------------------|
|--------------------------------------------|
|--------------------------------------------|
|
|  S  S  S  S S S  S  S  S  S S S  S  S S S
|--------------------------------------------|
|-13-13-13-13-8-8-13-13-13-13-8-8-13-13-8-8--|
|--------------------------------------------|
|--------------------------------------------|
|--------------------------------------------|
|--------------------------------------------|
|
|-----------------------------------------|
|  S  S  S  S S S  S  S  S  S S S  S  S S S
|--------------------------------------------|
|--------------------------------------------|
|--------------------------------------------|
|--------------------------------------------|
|--3--3--3--3-3-3--3--3--3--3-3-3--3--3-3-3--|
|--------------------------------------------|


  Ab5
   S  S  S  S  S  S  S  S  S  S  S  S  S  S  S  S
|-15-15-15-15-11-11-15-15-15-15-11-11-15-15-11-11-|
|-------------------------------------------------|
|-------------------------------------------------|
|-------------------------------------------------|
|-------------------------------------------------|
|-------------------------------------------------|
|
|  S  S  S  S  S  S  S  S  S  S  S  S  S  S  S  S
|-------------------------------------------------|
|-16-16-16-16-13-13-16-16-16-16-13-13-16-16-13-13-|
|-------------------------------------------------|
|-------------------------------------------------|
|-------------------------------------------------|
|-------------------------------------------------|
|
|        PM----------------------------------------
|  E     S  S  S  S  S  S  S  S  S  S  S  S  S  S
|-------------------------------------------------|
|-------------------------------------------------|
|-------------------------------------------------|
|-------------------------------------------------|
|--6----------------------------------------------|
|--4-----4--4--4--4--4--4--4--4--4--4--4--4--4--4-|


   S  S  S  S  S  S  S  S  S  S  S  S  S  S  S  S
|-15-15-15-15-11-11-15-15-15-15-11-11-15-15-11-11--|
|--------------------------------------------------|
|--------------------------------------------------|
|--------------------------------------------------|
|--------------------------------------------------|
|--------------------------------------------------|
|
|  S  S  S  S  S  S  S  S  S  S  S  S  S  S  S  S
|--------------------------------------------------|
|-16-16-16-16-13-13-16-16-16-16-13-13-16-16-13-13--|
|--------------------------------------------------|
|--------------------------------------------------|
|--------------------------------------------------|
|--------------------------------------------------|
|
|----------------------------------------------|
|  S  S  S  S  S  S  S  S  S  S  S  S  S  S  S  S
|--------------------------------------------------|
|--------------------------------------------------|
|--------------------------------------------------|
|--------------------------------------------------|
|--------------------------------------------------|
|--4--4--4--4--4--4--4--4--4--4--4--4--4--4--4--4--|


  F5
   S  S  S  S S S  S  S  S  S S S  S  S S S
|-13-13-13-13-8-8-13-13-13-13-8-8-13-13-8-8-|
|-------------------------------------------|
|-------------------------------------------|
|-------------------------------------------|
|-------------------------------------------|
|-------------------------------------------|
|
|  S  S  S  S S S  S  S  S  S S S  S  S S S
|-------------------------------------------|
|-13-13-13-13-9-9-13-13-13-13-9-9-13-13-9-9-|
|-------------------------------------------|
|-------------------------------------------|
|-------------------------------------------|
|-------------------------------------------|
|
|        PM----------------------------------
|  E     S  S S S  S  S  S  S S S  S  S S S
|-------------------------------------------|
|-------------------------------------------|
|-------------------------------------------|
|-------------------------------------------|
|--3----------------------------------------|
|--1-----1--1-1-1--1--1--1--1-1-1--1--1-1-1-|


   S  S  S  S S S  S  S  S  S S S  S  S S S
|-13-13-13-13-8-8-13-13-13-13-8-8-13-13-8-8--|
|--------------------------------------------|
|--------------------------------------------|
|--------------------------------------------|
|--------------------------------------------|
|--------------------------------------------|
|
|  S  S  S  S S S  S  S  S  S S S  S  S S S
|--------------------------------------------|
|-13-13-13-13-9-9-13-13-13-13-9-9-13-13-9-9--|
|--------------------------------------------|
|--------------------------------------------|
|--------------------------------------------|
|--------------------------------------------|
|
|-----------------------------------------|
|  S  S  S  S S S  S  S  S  S S S  S  S S S
|--------------------------------------------|
|--------------------------------------------|
|--------------------------------------------|
|--------------------------------------------|
|--------------------------------------------|
|--1--1--1--1-1-1--1--1--1--1-1-1--1--1-1-1--|


  Ab5
   S  S  S  S S S  S  S  S  S S S  S  S S S
|-11-11-11-11-8-8-11-11-11-11-8-8-11-11-8-8-|
|-------------------------------------------|
|-------------------------------------------|
|-------------------------------------------|
|-------------------------------------------|
|-------------------------------------------|
|
|  S  S  S  S S S  S  S  S  S S S  S  S S S
|-------------------------------------------|
|-13-13-13-13-8-8-13-13-13-13-8-8-13-13-8-8-|
|-------------------------------------------|
|-------------------------------------------|
|-------------------------------------------|
|-------------------------------------------|
|
|        PM----------------------------------
|  E     S  S S S  S  S  S  S S S  S  S S S
|-------------------------------------------|
|-------------------------------------------|
|-------------------------------------------|
|-------------------------------------------|
|--6----------------------------------------|
|--4-----4--4-4-4--4--4--4--4-4-4--4--4-4-4-|


                                       ~~~
  S  S  S  S  S  S  S  S   E     E     Q
|-8-10-11-13-10-11-13-15-/11---/13---/15--------||
|-----------------------------------------------||
|-----------------------------------------------||
|-----------------------------------------------||
|-----------------------------------------------||
|-----------------------------------------------||
|
|                                      ~~~
| S  S  S  S  S  S  S  S   E     E     Q
|-----------------------------------------------||
|-8-11-13-15-11-13-15-16-/13---/15---/16--------||
|-----------------------------------------------||
|-----------------------------------------------||
|-----------------------------------------------||
|-----------------------------------------------||
|
|--------------------------------------------|
| S  S  S  S  S  S  S  S   S S   S S   S S S S
|-----------------------------------------------||
|-----------------------------------------------||
|-----------------------------------------------||
|-----------------------------------------------||
|-----------------------------------------------||
|-4--4--4--4--4--4--4--4---4-4---4-4---4-4-4-4--||


  C5
   S  S  S  S S S  S  S  S  S S S  S  S S S
|-11-11-11-11-8-8-11-11-11-11-8-8-11-11-8-8-|
|-------------------------------------------|
|-------------------------------------------|
|-------------------------------------------|
|-------------------------------------------|
|-------------------------------------------|
|
|  S  S  S  S S S  S  S  S  S S S  S  S S S
|-------------------------------------------|
|-13-13-13-13-8-8-13-13-13-13-8-8-13-13-8-8-|
|-------------------------------------------|
|-------------------------------------------|
|-------------------------------------------|
|-------------------------------------------|
|
|        PM----------------------------------
|  E     S  S S S  S  S  S  S S S  S  S S S
|-------------------------------------------|
|-------------------------------------------|
|-------------------------------------------|
|--5----------------------------------------|
|--3-----3--3-3-3--3--3--3--3-3-3--3--3-3-3-|
|-------------------------------------------|


   S  S  S  S S S  S  S  S  S S S  S  S S S
|-11-11-11-11-8-8-11-11-11-11-8-8-11-11-8-8--|
|--------------------------------------------|
|--------------------------------------------|
|--------------------------------------------|
|--------------------------------------------|
|--------------------------------------------|
|
|  S  S  S  S S S  S  S  S  S S S  S  S S S
|--------------------------------------------|
|-13-13-13-13-8-8-13-13-13-13-8-8-13-13-8-8--|
|--------------------------------------------|
|--------------------------------------------|
|--------------------------------------------|
|--------------------------------------------|
|
|-----------------------------------------|
|  S  S  S  S S S  S  S  S  S S S  S  S S S
|--------------------------------------------|
|--------------------------------------------|
|--------------------------------------------|
|--------------------------------------------|
|--3--3--3--3-3-3--3--3--3--3-3-3--3--3-3-3--|
|--------------------------------------------|


  Ab5
   S  S  S  S  S  S  S  S  S  S  S  S  S  S  S  S
|-15-15-15-15-11-11-15-15-15-15-11-11-15-15-11-11-|
|-------------------------------------------------|
|-------------------------------------------------|
|-------------------------------------------------|
|-------------------------------------------------|
|-------------------------------------------------|
|
|  S  S  S  S  S  S  S  S  S  S  S  S  S  S  S  S
|-------------------------------------------------|
|-16-16-16-16-13-13-16-16-16-16-13-13-16-16-13-13-|
|-------------------------------------------------|
|-------------------------------------------------|
|-------------------------------------------------|
|-------------------------------------------------|
|
|        PM----------------------------------------
|  E     S  S  S  S  S  S  S  S  S  S  S  S  S  S
|-------------------------------------------------|
|-------------------------------------------------|
|-------------------------------------------------|
|-------------------------------------------------|
|--6----------------------------------------------|
|--4-----4--4--4--4--4--4--4--4--4--4--4--4--4--4-|


   S  S  S  S  S  S  S  S  S  S  S  S  S  S  S  S
|-15-15-15-15-11-11-15-15-15-15-11-11-15-15-11-11--|
|--------------------------------------------------|
|--------------------------------------------------|
|--------------------------------------------------|
|--------------------------------------------------|
|--------------------------------------------------|
|
|  S  S  S  S  S  S  S  S  S  S  S  S  S  S  S  S
|--------------------------------------------------|
|-16-16-16-16-13-13-16-16-16-16-13-13-16-16-13-13--|
|--------------------------------------------------|
|--------------------------------------------------|
|--------------------------------------------------|
|--------------------------------------------------|
|
|----------------------------------------------|
|  S  S  S  S  S  S  S  S  S  S  S  S  S  S  S  S
|--------------------------------------------------|
|--------------------------------------------------|
|--------------------------------------------------|
|--------------------------------------------------|
|--------------------------------------------------|
|--4--4--4--4--4--4--4--4--4--4--4--4--4--4--4--4--|


  F5
   S  S  S  S S S  S  S  S  S S S  S  S S S
|-13-13-13-13-8-8-13-13-13-13-8-8-13-13-8-8-|
|-------------------------------------------|
|-------------------------------------------|
|-------------------------------------------|
|-------------------------------------------|
|-------------------------------------------|
|
|  S  S  S  S S S  S  S  S  S S S  S  S S S
|-------------------------------------------|
|-13-13-13-13-9-9-13-13-13-13-9-9-13-13-9-9-|
|-------------------------------------------|
|-------------------------------------------|
|-------------------------------------------|
|-------------------------------------------|
|
|        PM----------------------------------
|  E     S  S S S  S  S  S  S S S  S  S S S
|-------------------------------------------|
|-------------------------------------------|
|-------------------------------------------|
|-------------------------------------------|
|--3----------------------------------------|
|--1-----1--1-1-1--1--1--1--1-1-1--1--1-1-1-|


   S  S  S  S S S  S  S  S  S S S  S  S S S
|-13-13-13-13-8-8-13-13-13-13-8-8-13-13-8-8--|
|--------------------------------------------|
|--------------------------------------------|
|--------------------------------------------|
|--------------------------------------------|
|--------------------------------------------|
|
|  S  S  S  S S S  S  S  S  S S S  S  S S S
|--------------------------------------------|
|-13-13-13-13-9-9-13-13-13-13-9-9-13-13-9-9--|
|--------------------------------------------|
|--------------------------------------------|
|--------------------------------------------|
|--------------------------------------------|
|
|-----------------------------------------|
|  S  S  S  S S S  S  S  S  S S S  S  S S S
|--------------------------------------------|
|--------------------------------------------|
|--------------------------------------------|
|--------------------------------------------|
|--------------------------------------------|
|--1--1--1--1-1-1--1--1--1--1-1-1--1--1-1-1--|


  Ab5
   S S  S  S S  S  S S   S S  S  S S  S  S S
|-11p8---------------8-/11p8---------------8-|
|-------9----8--9-11----------9----8--9-11---|
|----------8---------------------8-----------|
|--------------------------------------------|
|--------------------------------------------|
|--------------------------------------------|
|
|  S S  S  S S  S  S S   S S  S  S S  S  S S
|--------------------------------------------|
|-13p9---------------9-/13p9---------------9-|
|------10----8-10-12---------10----8-10-12---|
|---------10--------------------10-----------|
|--------------------------------------------|
|--------------------------------------------|
|
|       PM------------------------------------
|  E    S  S S  S  S S   S S  S  S S  S  S S
|--------------------------------------------|
|--------------------------------------------|
|--------------------------------------------|
|--------------------------------------------|
|--6-----------------------------------------|
|--4----4--4-4--4--4-4---4-4--4--4-4--4--4-4-|


           /1   /1   /1   /1   /1   /1   /1   /1
    E     +S    +S    +S    +S    +S    +S    +S    +S    +E     +Q
|----(16)--(16)--(16)--(16)--(16)--(16)--(16)--(16)--(16)---(16)--------||
|---------------------------------------------------------------------------||
|---------------------------------------------------------------------------||
|---------------------------------------------------------------------------||
|---------------------------------------------------------------------------||
|---------------------------------------------------------------------------||
|
|          /1   /1   /1   /1   /1   /1   /1   /1
|   E     +S    +S    +S    +S    +S    +S    +S    +S    +E     +Q
|---------------------------------------------------------------------------||
|--18----(18)--(18)--(18)--(18)--(18)--(18)--(18)--(18)--(18)---(18)--------||
|---------------------------------------------------------------------------||
|--15----(15)--(15)--(15)--(15)--(15)--(15)--(15)--(15)--(15)---(15)--------||
|---------------------------------------------------------------------------||
|---------------------------------------------------------------------------||
|
|------------------------------------------------------------------------|
|   S  S   S     S     S     S     S     S     S     S     S  S   S  S S S
|---------------------------------------------------------------------------||
|---------------------------------------------------------------------------||
|---------------------------------------------------------------------------||
|---------------------------------------------------------------------------||
|---------------------------------------------------------------------------||
|---4--4---4-----4-----4-----4-----4-----4-----4-----4-----4--4---4--4-4-4--||


 Verse
  C5                      Ab5
  Gtr I
  Q  H.        W          Q  H.        W
|------------|----------|------------|------|
|------------|----------|------------|------|
|-5----------|----------|------------|------|
|-5----------|----------|-6----------|------|
|-3----------|----------|-6----------|------|
|------------|----------|-4----------|------|


  Bb5                                        C5
  Q  H.        W          E. S E. S E Q.     Q  H.
|------------|----------|------------------|----------||
|------------|----------|------------------|----------||
|-3----------|----------|-3----3----3-3----|-5--------||
|-3----------|----------|-3----3----3-3----|-5--------||
|-1----------|----------|-1----1----1-1----|-3--------||
|------------|----------|------------------|----------||


    PM------------------------------------------|
  E S S S S S S S S S S S S S S   S S S S S S S S E E E E
|-------------------------------|-------------------------|
|-------------------------------|-------------------------|
|-------------------------------|---------------------3-5-|
|-5-----------------------------|-----------------5-5-3-5-|
|-3-3-3-3-3-3-3-3-3-3-3-3-3-3-3-|-3-3-3-3-3-3-3-3-3-3-----|
|-------------------------------|-------------------------|


  Ab5
    PM----------------------------------------------------------|
  E S S S S S S S S S S S S S S   S S S S S S S S S S S S S S S S
|-------------------------------|-----------------------------------|
|-------------------------------|-----------------------------------|
|-------------------------------|-----------------------------------|
|-------------------------------|-----------------------------------|
|-6-----------------------------|-----------------------------------|
|-4-4-4-4-4-4-4-4-4-4-4-4-4-4-4-|-4-4-4-4-4-4-4-4-4-4-4-4-4-4-4-4---|


  Bb5                                       C5
    PM----|              PM----|            PM|   PM--|   PM--|        PM--|
  E S S S S E +H       E S S S S E +H       E E E E E E E E   E Q  E E E E E
|--------------------|--------------------|-----------------|-----------------||
|--------------------|--------------------|-----------------|-----------------||
|-----------3-(3)----|-----------3-(3)----|-----------------|---5--3-5--------||
|-3---------3-(3)----|-3---------3-(3)----|-----5-------5---|---5--3-5--------||
|-1-1-1-1-1-1-(1)----|-1-1-1-1-1-1-(1)----|-3-3-3-3-3-3-3-3-|-3--------3-3-3--||
|--------------------|--------------------|-----------------|-----------------||


    PM----------------------------------------------------------|
  E S S S S S S S S S S S S S S   S S S S S S S S S S S S S S S S
|-------------------------------|---------------------------------|
|-------------------------------|---------------------------------|
|-------------------------------|---------------------------------|
|-5-----------------------------|---------------------------------|
|-3-3-3-3-3-3-3-3-3-3-3-3-3-3-3-|-3-3-3-3-3-3-3-3-3-3-3-3-3-3-3-3-|
|-------------------------------|---------------------------------|


  Ab5
    PM----------------------------------------------------------|
  E S S S S S S S S S S S S S S   S S S S S S S S S S S S S S S S
|-------------------------------|------------------------------------|
|-------------------------------|------------------------------------|
|-------------------------------|------------------------------------|
|-------------------------------|------------------------------------|
|-6-----------------------------|------------------------------------|
|-4-4-4-4-4-4-4-4-4-4-4-4-4-4-4-|-4-4-4-4-4-4-4-4-4-4-4-4-4-4-4-4----|


  Bb5
  PM------|   PM         PM------|     PM
  E S S E E E E  Q       E S S E E  E  E  Q
|----------------------|------------------------|
|----------------------|------------------------|
|----------------------|------------------------|
|-----------3---[3]b5--|-----------[3]---[3]b5--|
|-1-1-1-1-1---1--------|-1-1-1-1-1-----1--------|
|----------------------|------------------------|


  C5
    PM------------------------|
  E S S S S S S S S S S S S S S   E E. S E. S E. S E
|-------------------------------|----------------------||
|-------------------------------|----------------------||
|-------------------------------|---5----5----5----5---||
|-5-----------------------------|---5----5----5----5---||
|-3-3-3-3-3-3-3-3-3-3-3-3-3-3-3-|---3----3----3----3---||
|-------------------------------|----------------------||


 Pre-Chorus
  F5                                     C5
  Gtr II
                                          T     T     T     T     T     T     T     T
   E E E E E E E E    E  E E E E E E E    S  S  S  S  S  S  S  S  S  S  S  S  S  S  S  S
|------------------|-------------------|-11--8-11--8-11--8-11--8-11--8-11--8-11--8-11--8-|
|--9-----8-----6---|--9------8-----6---|-------------------------------------------------|
|----5-5---5-5---5-|-----5-5---5-5---5-|-------------------------------------------------|
|------------------|-------------------|-------------------------------------------------|
|------------------|-------------------|-------------------------------------------------|
|------------------|-------------------|-------------------------------------------------|
|
| Gtr III
|                                         T     T     T     T     T     T     T     T
|  E E E E E E E E    E  E E E E E E E    S  S  S  S  S  S  S  S  S  S  S  S  S  S  S  S
|------------------|-------------------|-15-11-15-11-15-11-15-11-15-11-15-11-15-11-15-11-|
|------------------|-------------------|-------------------------------------------------|
|-10-----8-----7---|-10------8-----7---|-------------------------------------------------|
|----6-6---6-6---6-|-----6-6---6-6---6-|-------------------------------------------------|
|------------------|-------------------|-------------------------------------------------|
|------------------|-------------------|-------------------------------------------------|
|
| Gtr I
|  W                 +W                   W
|------------------|-------------------|-------------------------------------------------|
|------------------|-------------------|-------------------------------------------------|
|------------------|-------------------|--5----------------------------------------------|
|--3---------------|-(3)---------------|--5----------------------------------------------|
|--3---------------|-(3)---------------|--3----------------------------------------------|
|--1---------------|-(1)---------------|-------------------------------------------------|


   T      T     T     T     T     T     T     T
   S   S  S  S  S  S  S  S  S  S  S  S  S  S  S  S
|-11---8-11--8-11--8-11--8-11--8-11--8-11--8-11--8---|
|----------------------------------------------------|
|----------------------------------------------------|
|----------------------------------------------------|
|----------------------------------------------------|
|----------------------------------------------------|
|
|  T      T     T     T     T     T     T     T
|  S   S  S  S  S  S  S  S  S  S  S  S  S  S  S  S
|-15--11-15-11-15-11-15-11-15-11-15-11-15-11-15-11---|
|----------------------------------------------------|
|----------------------------------------------------|
|----------------------------------------------------|
|----------------------------------------------------|
|----------------------------------------------------|
|
| +W
|----------------------------------------------------|
|----------------------------------------------------|
|-(5)------------------------------------------------|
|-(5)------------------------------------------------|
|-(3)------------------------------------------------|
|----------------------------------------------------|


  Ab5
   E  E  E E  E  E E  E    E   E  E E  E  E E  E
|-----------------------|------------------------|
|--9-------8-------6----|--9--------8-------6----|
|-----5--5----5--5----5-|------5--5----5--5----5-|
|-----------------------|------------------------|
|-----------------------|------------------------|
|-----------------------|------------------------|
|
|  E  E  E E  E  E E  E    E   E  E E  E  E E  E
|-----------------------|------------------------|
|-----------------------|------------------------|
|-10-------8-------7----|-10--------8-------7----|
|----10-10---10-10---10-|-----10-10---10-10---10-|
|-----------------------|------------------------|
|-----------------------|------------------------|
|
|  W                      +W
|-----------------------|------------------------|
|-----------------------|------------------------|
|-----------------------|------------------------|
|--6--------------------|-(6)--------------------|
|--6--------------------|-(6)--------------------|
|--4--------------------|-(4)--------------------|


  Bb5                            Ab5   Bb5
   W                E  E    E  E  E  E  E  E
|-----------------|-8S10S==11S13S15S16S18S23-||
|-11--------------|--------------------------||
|-----------------|--------------------------||
|-----------------|--------------------------||
|-----------------|--------------------------||
|-----------------|--------------------------||
|
|  W                E  E    E  E  E  E  E  E
|-----------------|--------------------------||
|-----------------|--------------------------||
|-10--------------|-5S=7S===8S10S12S13S15S20-||
|-----------------|--------------------------||
|-----------------|--------------------------||
|-----------------|--------------------------||
|
|     PM--------|
|  Q  E E E E E E   E.   S  Q     Q     Q
|-----------------|--------------------------||
|-----------------|--------------------------||
|--3--------------|-3-------3-----------3----||
|--3--------------|-3-------3-----6-----3----||
|--1--1-1-1-1-1-1-|-1-------1-----6-----1----||
|-----------------|---------------4----------||


 Chorus
  Gtr I
  W          W          W          S  S E S S E S S E  Q
|----------|----------|----------|-------------------------|
|----------|----------|----------|-------------------------|
|-8--------|----------|----------|-------------------------|
|-8--------|-8--------|-6--------|--------------------[5]--|
|-6--------|-8--------|-6--------|-6--6-6-6-6-6-6-6-6-[6]--|
|----------|-6--------|-4--------|-4--4-4-4-4-4-4-4-4------|
                                   H.                  Q


  C5                Bb5
    PM|   PM|   PM     PM|   PM|
  E E E E E E E E   E  E E E E E  Q
|-----------------|-------------------|
|-----------------|-------------------|
|-----------------|-------------------|
|-5-----5-----5---|-3------3-----[3]--|
|-3-3-3-3-3-3-3-3-|-1--1-1-1-1-1-[1]--|
|-----------------|-------------------|
                    H.            Q


  Ab5
    PM----------------------------------------------------------|
  E S S S S S S S S S S S S S S   S S S S S S S S S S S S S S S S
|-------------------------------|------------------------------------||
|-------------------------------|------------------------------------||
|-------------------------------|------------------------------------||
|-------------------------------|------------------------------------||
|-6-----------------------------|------------------------------------||
|-4-4-4-4-4-4-4-4-4-4-4-4-4-4-4-|-4-4-4-4-4-4-4-4-4-4-4-4-4-4-4-4----||


  C5         Ab5        C5                     Eb5
  Gtr II
  W          W          E  E  E E  E  E E  E    W
|----------|----------|----------------------|-------|
|----------|----------|-8-------6-------8----|-11----|
|----------|----------|----8--8----8--8----8-|-------|
|----------|----------|----------------------|-------|
|----------|----------|----------------------|-------|
|----------|----------|----------------------|-------|
|
| Gtr III
| W          W          E  E  E E  E  E E  E    W
|----------|----------|----------------------|-------|
|----------|----------|----------------------|-------|
|----------|----------|-8-------7-------8----|-12----|
|----------|----------|---10-10---10-10---10-|-------|
|----------|----------|----------------------|-------|
|----------|----------|----------------------|-------|
|
| Gtr I
|                          PM|     PM|     PM
| W          W          E  E  E E  E  E E  E    W
|----------|----------|----------------------|-------|
|----------|----------|----------------------|-------|
|-5--------|----------|----------------------|--8----|
|-5--------|-6--------|-5-------5-------5----|--8----|
|-3--------|-6--------|-3--3--3-3--3--3-3--3-|--6----|
|----------|-4--------|----------------------|-------|


  Ab5
  S S  S  S S S S S S S  S  S S S S S   S S  S  S S S S S S S  S  S S S S S
|-----------6-6-8-8-----------6-6-8-8-|-----------6-6-8-8-----------6-6-8-8-|
|-6-6--9--9---------6-6--9--9---------|-6-6--9--9---------6-6--9--9---------|
|-------------------------------------|-------------------------------------|
|-------------------------------------|-------------------------------------|
|-------------------------------------|-------------------------------------|
|-------------------------------------|-------------------------------------|
|
| S S  S  S S S S S S S  S  S S S S S   S S  S  S S S S S S S  S  S S S S S
|-------------------------------------|-------------------------------------|
|-----------8-8-9-9-----------8-8-9-9-|-----------8-8-9-9-----------8-8-9-9-|
|-5-5-10-10---------5-5-10-10---------|-5-5-10-10---------5-5-10-10---------|
|-------------------------------------|-------------------------------------|
|-------------------------------------|-------------------------------------|
|-------------------------------------|-------------------------------------|
|
|      PM-----------------------------------------------------------------|
| E    S  S S S S S S S  S  S S S S S   S S  S  S S S S S S S  S  S S S S S
|-------------------------------------|-------------------------------------|
|-------------------------------------|-------------------------------------|
|-------------------------------------|-------------------------------------|
|-------------------------------------|-------------------------------------|
|-6-----------------------------------|-------------------------------------|
|-4----4--4-4-4-4-4-4-4--4--4-4-4-4-4-|-4-4--4--4-4-4-4-4-4-4--4--4-4-4-4-4-|


  Bb5
  W                                 H..            +E
|-6-----------------------------|----------------------||
|-------------------------------|----------------------||
|-------------------------------|-[10]b15---------(10)-||
|-------------------------------|----------------------||
|-------------------------------|----------------------||
|-------------------------------|----------------------||
|
|                                   ~~~~~~~
| W                                 H..            +E
|-------------------------------|--16b22----------(16)-||
|-6-----------------------------|----------------------||
|-------------------------------|----------------------||
|-------------------------------|----------------------||
|-------------------------------|----------------------||
|-------------------------------|----------------------||
|
|   PM------------------------|
| E S S S S S S S S S S S S S S     Q      H.
|-------------------------------|----------------------||
|-------------------------------|----------------------||
|-------------------------------|---3------------------||
|-3-----------------------------|---3------------------||
|-1-1-1-1-1-1-1-1-1-1-1-1-1-1-1-|---1------------------||
|-------------------------------|----------------------||


 Guitar Solo
  C5
                             PM|
  E Q  E E E E E    E  Q   E E E  Q
|----------------|---------------[6]--|
|-8-8--6-8-6-----|--8--8-----6-8------|
|------------8-5-|---------8----------|
|----------------|--------------------|
|----------------|--------------------|
|----------------|--------------------|
|
|                            PM|
| E Q  E E E E E    E  Q   E E E  Q
|----------------|--------------------|
|----------------|---------------[8]--|
|-8-8--7-8-7-----|--8--8-----7-8------|
|------------8-5-|--------10----------|
|----------------|--------------------|
|----------------|--------------------|
|
| W                +W
|----------------|--------------------|
|----------------|--------------------|
|-5--------------|-(5)----------------|
|-5--------------|-(5)----------------|
|-3--------------|-(3)----------------|
|----------------|--------------------|


  Ab5                            Bb5
                                            ~~~~~~~~~~~
  E Q  S S S S  S  S  S  S S S    E  E  E   H      +E
|---------------------6--6-----|--6--8-10-[11]----(11)-|
|-8-8--6-6-8-8--9--9-------8-8-|-----------------------|
|------------------------------|-----------------------|
|------------------------------|-----------------------|
|------------------------------|-----------------------|
|------------------------------|-----------------------|
|
|                                           ~~~~~~~~~~~
| E Q  S S S S  S  S  S  S S S    E  E  E   H      +E
|------------------------------|-----------13-----(13)-|
|------------------------------|-------11--------------|
|-8-8--7-7-8-8-10-10-12-12-8-8-|-12-12-----------------|
|------------------------------|-----------------------|
|------------------------------|-----------------------|
|------------------------------|-----------------------|
|
| W                               W
|------------------------------|-----------------------|
|------------------------------|-----------------------|
|------------------------------|--3--------------------|
|-6----------------------------|--3--------------------|
|-6----------------------------|--1--------------------|
|-4----------------------------|-----------------------|


  C5
  E E E  Q   E E  E      E   E  E  E E   E  S  S  E
|-6------------6-11-|-/[15]-11-15-16---/18-16p15----|
|---8---------------|----------------------------16-|
|-----8-[8]--8------|-------------------------------|
|-------------------|-------------------------------|
|-------------------|-------------------------------|
|-------------------|-------------------------------|
|
| E E E  Q   E E  E      E   E  E  E E   E  S  S  E
|-------------------|-------------------------------|
|-8------------8-11-|-/[16]-11-16-18---/20-18p16----|
|---8---------------|----------------------------15-|
|-----8-[8]--8------|-------------------------------|
|-------------------|-------------------------------|
|-------------------|-------------------------------|
|
| W                     +W
|-------------------|-------------------------------|
|-------------------|-------------------------------|
|-5-----------------|---(5)-------------------------|
|-5-----------------|---(5)-------------------------|
|-3-----------------|---(3)-------------------------|
|-------------------|-------------------------------|


  Ab5                        Bb5
                              T     T     T     T     T     T     T
    E  E  E  E  E  E  E  E    S  S  S  S  S  S  S  S  S  S  S  S  S  S  E
|-/23-23s18S23-23-18-23s18-|-18-16-18-16-18-16-18-16-18-15-20-16-18-15s11-|
|--------------------------|----------------------------------------------|
|--------------------------|----------------------------------------------|
|--------------------------|----------------------------------------------|
|--------------------------|----------------------------------------------|
|--------------------------|----------------------------------------------|
|
|                             T     T     T     T     T     T     T
|   E  E  E  E  E  E  E  E    S  S  S  S  S  S  S  S  S  S  S  S  S  S  E
|-/18-18s15S18-18-15-18s15-|----------------------------------------------|
|--------------------------|-20-18-20-18-20-18-20-18-20-16-21-18-20-16s11-|
|--------------------------|----------------------------------------------|
|--------------------------|----------------------------------------------|
|--------------------------|----------------------------------------------|
|--------------------------|----------------------------------------------|
|
|   W                         W
|--------------------------|----------------------------------------------|
|--------------------------|----------------------------------------------|
|--------------------------|--3-------------------------------------------|
|---6----------------------|--3-------------------------------------------|
|---6----------------------|--1-------------------------------------------|
|---4----------------------|----------------------------------------------|


  C5
  E Q  S S S S S S S S S S    E  Q  E  E   E   Q
|--------------------------|----------------------|
|-8-8--6-6-8-8-6-6---------|--8--8--6-/8--/9-/11--|
|------------------8-8-5-5-|----------------------|
|--------------------------|----------------------|
|--------------------------|----------------------|
|--------------------------|----------------------|
|
| E Q  S S S S S S S S S S    E  Q  E  E   E   Q
|--------------------------|----------------------|
|--------------------------|----------------------|
|-8-8--7-7-8-8-7-7---------|--8--8--7-/8-/10-/12--|
|------------------8-8-5-5-|----------------------|
|--------------------------|----------------------|
|--------------------------|----------------------|
|
| W                          +W
|--------------------------|----------------------|
|--------------------------|----------------------|
|-5------------------------|-(5)------------------|
|-5------------------------|-(5)------------------|
|-3------------------------|-(3)------------------|
|--------------------------|----------------------|


  Ab5                                  Bb5
   T    T    T   T   T   T   T   T                ~~~~~~~~~~~
   S S  S S  S S S S S S S S S S S S    E  E  E   H      +E
|-11-6-11-6-11-6-8-4-8-4-8-4-6-4-6-4-|-/6--8-10-[11]----(11)--|
|------------------------------------|------------------------|
|------------------------------------|------------------------|
|------------------------------------|------------------------|
|------------------------------------|------------------------|
|------------------------------------|------------------------|
|
|  T    T    T   T   T   T   T   T                ~~~~~~~~~~~
|  S S  S S  S S S S S S S S S S S S    E  E  E   H      +E
|------------------------------------|-----------13-----(13)--|
|-11-8-11-8-11-8-9-4-9-4-9-4-8-4-8-4-|-------11---------------|
|------------------------------------|-12-12------------------|
|------------------------------------|------------------------|
|------------------------------------|------------------------|
|------------------------------------|------------------------|
|
|  W                                    W
|------------------------------------|------------------------|
|------------------------------------|------------------------|
|------------------------------------|--3---------------------|
|--6---------------------------------|--3---------------------|
|--6---------------------------------|--1---------------------|
|--4---------------------------------|------------------------|


  C5                                            Ab5
                                                 T     T     T     T     T     T     T     T
  E Q  S  S E  E E E    E  Q  S  S E  E   Q      S  S  S  S  S  S  S  S  S  S  S  S  S  S  S  S
|-6-6-------6--------|--6--6-------6-11-[11]--|-23-18-23-18-23-18-23-16-23-18-23-16-23-18-23-18-|
|------8--9----9-8---|--------8--9------------|-------------------------------------------------|
|------------------8-|------------------------|-------------------------------------------------|
|--------------------|------------------------|-------------------------------------------------|
|--------------------|------------------------|-------------------------------------------------|
|--------------------|------------------------|-------------------------------------------------|
|
|                                                T     T     T     T     T     T     T     T
| E Q  S  S E  E E E    E  Q  S  S E  E   Q      S  S  S  S  S  S  S  S  S  S  S  S  S  S  S  S
|--------------------|------------------------|-20-15-20-15-20-15-20-13-20-15-20-13-20-15-20-15-|
|-8-8-------8--------|--8--8-------8-11-[11]--|-------------------------------------------------|
|------8-10---10-8---|--------8-10------------|-------------------------------------------------|
|------------------8-|------------------------|-------------------------------------------------|
|--------------------|------------------------|-------------------------------------------------|
|--------------------|------------------------|-------------------------------------------------|
|
| W                    +W                        W
|--------------------|------------------------|-------------------------------------------------|
|--------------------|------------------------|-------------------------------------------------|
|-5------------------|-(5)--------------------|-------------------------------------------------|
|-5------------------|-(5)--------------------|--6----------------------------------------------|
|-3------------------|-(3)--------------------|--6----------------------------------------------|
|--------------------|------------------------|--4----------------------------------------------|


            Bb5  Ab5  G5   F5    C5
                                   ~~~~
    E  S  S   Q    E.   E.   E     Q.   E H
|-/16-16-16-/18--/16--/15--/10-|-[15]----------||
|------------------------------|---------------||
|------------------------------|---------------||
|------------------------------|---------------||
|------------------------------|---------------||
|------------------------------|---------------||
|
|                                  ~~~~
|   E  S  S   Q    E.   E.   E     Q.   E H
|------------------------------|---------------||
|-/18-18-18-/20--/18--/16--/11-|-[16]----------||
|------------------------------|---------------||
|------------------------------|---------------||
|------------------------------|---------------||
|------------------------------|---------------||
|
|   Q         Q    E.   E.   E     Q.   E H
|------------------------------|---------------||
|------------------------------|---------------||
|-------------3----------------|---5-----------||
|---6---------3----6----5----3-|---5-----------||
|---6---------1----6----5----3-|---3-----------||
|---4--------------4----3----1-|---------------||


 Verse
  N.C.       C5                                 Ab5
  Gtr I
                PM--------------------------|      PM--------|
  W          Q  E E E E E E   E E E E E E E E   Q  E E E E E E
|----------|----------------|-----------------|-----------------|
|----------|----------------|-----------------|-----------------|
|----------|-5--------------|-----------------|-----------------|
|----------|-5--------------|-----------------|-6---------------|
|----------|-3--3-3-3-3-3-3-|-3-3-3-3-3-3-3-3-|-6---------------|
|----------|----------------|-----------------|-4--4-4-4-4-4-4--|


                    Bb5                                C5
  PM------------|      PM--------------------------|
  E E E E E E E E   Q  E E E E E E   E E E E E E E E   Q  H.        Q  H.
|-----------------|----------------|-----------------|------------|----------||
|-----------------|----------------|-----------------|------------|----------||
|-----------------|-3--------------|-----------------|-5----------|-5--------||
|-----------------|-3--------------|-----------------|-5----------|-5--------||
|-----------------|-1--1-1-1-1-1-1-|-1-1-1-1-1-1-1-1-|-3----------|-3--------||
|-4-4-4-4-4-4-4-4-|----------------|-----------------|------------|----------||


    PM----------------------------------------------------------|
  E S S S S S S S S S S S S S S   S S S S S S S S S S S S S S S S
|-------------------------------|---------------------------------|
|-------------------------------|---------------------------------|
|-------------------------------|---------------------------------|
|-5-----------------------------|---------------------------------|
|-3-3-3-3-3-3-3-3-3-3-3-3-3-3-3-|-3-3-3-3-3-3-3-3-3-3-3-3-3-3-3-3-|
|-------------------------------|---------------------------------|


  Ab5
    PM----------------------------------------------------------|
  E S S S S S S S S S S S S S S   S S S S S S S S S S S S S S S S
|-------------------------------|------------------------------------|
|-------------------------------|------------------------------------|
|-------------------------------|------------------------------------|
|-------------------------------|------------------------------------|
|-6-----------------------------|------------------------------------|
|-4-4-4-4-4-4-4-4-4-4-4-4-4-4-4-|-4-4-4-4-4-4-4-4-4-4-4-4-4-4-4-4----|


  Bb5
    PM----|              PM----|
  E S S S S E +H       E S S S S E +H
|--------------------|--------------------|
|--------------------|--------------------|
|-----------3-(3)----|-----------3-(3)----|
|-3---------3-(3)----|-3---------3-(3)----|
|-1-1-1-1-1-1-(1)----|-1-1-1-1-1-1-(1)----|
|--------------------|--------------------|


  C5
  PM|   PM--|   PM--|        PM
  E E E E E E E E   E Q  E E E  Q
|-----------------|------------------||
|-----------------|------------------||
|-----------------|---5--3-5---[5]---||
|-----5-------5---|---5--3-5---------||
|-3-3-3-3-3-3-3-3-|-3--------3-------||
|-----------------|------------------||


 Pre-Chorus
  F5                                     C5
  Gtr II
                                          T     T     T     T     T     T     T     T
   E E E E E E E E    E  E E E E E E E    S  S  S  S  S  S  S  S  S  S  S  S  S  S  S  S
|------------------|-------------------|-11--8-11--8-11--8-11--8-11--8-11--8-11--8-11--8-|
|--9-----8-----6---|--9------8-----6---|-------------------------------------------------|
|----5-5---5-5---5-|-----5-5---5-5---5-|-------------------------------------------------|
|------------------|-------------------|-------------------------------------------------|
|------------------|-------------------|-------------------------------------------------|
|------------------|-------------------|-------------------------------------------------|
|
| Gtr III
|                                         T     T     T     T     T     T     T     T
|  E E E E E E E E    E  E E E E E E E    S  S  S  S  S  S  S  S  S  S  S  S  S  S  S  S
|------------------|-------------------|-15-11-15-11-15-11-15-11-15-11-15-11-15-11-15-11-|
|------------------|-------------------|-------------------------------------------------|
|-10-----8-----7---|-10------8-----7---|-------------------------------------------------|
|----6-6---6-6---6-|-----6-6---6-6---6-|-------------------------------------------------|
|------------------|-------------------|-------------------------------------------------|
|------------------|-------------------|-------------------------------------------------|
|
| Gtr I
|  W                 +W                   W
|------------------|-------------------|-------------------------------------------------|
|------------------|-------------------|-------------------------------------------------|
|------------------|-------------------|--5----------------------------------------------|
|--3---------------|-(3)---------------|--5----------------------------------------------|
|--3---------------|-(3)---------------|--3----------------------------------------------|
|--1---------------|-(1)---------------|-------------------------------------------------|


   T      T     T     T     T     T     T     T
   S   S  S  S  S  S  S  S  S  S  S  S  S  S  S  S
|-11---8-11--8-11--8-11--8-11--8-11--8-11--8-11--8---|
|----------------------------------------------------|
|----------------------------------------------------|
|----------------------------------------------------|
|----------------------------------------------------|
|----------------------------------------------------|
|
|  T      T     T     T     T     T     T     T
|  S   S  S  S  S  S  S  S  S  S  S  S  S  S  S  S
|-15--11-15-11-15-11-15-11-15-11-15-11-15-11-15-11---|
|----------------------------------------------------|
|----------------------------------------------------|
|----------------------------------------------------|
|----------------------------------------------------|
|----------------------------------------------------|
|
| +W
|----------------------------------------------------|
|----------------------------------------------------|
|-(5)------------------------------------------------|
|-(5)------------------------------------------------|
|-(3)------------------------------------------------|
|----------------------------------------------------|


  Ab5
   E  E  E E  E  E E  E    E   E  E E  E  E E  E
|-----------------------|------------------------|
|--9-------8-------6----|--9--------8-------6----|
|-----5--5----5--5----5-|------5--5----5--5----5-|
|-----------------------|------------------------|
|-----------------------|------------------------|
|-----------------------|------------------------|
|
|  E  E  E E  E  E E  E    E   E  E E  E  E E  E
|-----------------------|------------------------|
|-----------------------|------------------------|
|-10-------8-------7----|-10--------8-------7----|
|----10-10---10-10---10-|-----10-10---10-10---10-|
|-----------------------|------------------------|
|-----------------------|------------------------|
|
|  W                      +W
|-----------------------|------------------------|
|-----------------------|------------------------|
|-----------------------|------------------------|
|--6--------------------|-(6)--------------------|
|--6--------------------|-(6)--------------------|
|--4--------------------|-(4)--------------------|


  Bb5                       Ab5Bb5
   W                W
|-----------------|----------------||
|-11--------------|----------------||
|-----------------|----------------||
|-----------------|----------------||
|-----------------|----------------||
|-----------------|----------------||
|
|  W                W
|-----------------|----------------||
|-----------------|----------------||
|-10--------------|----------------||
|-----------------|----------------||
|-----------------|----------------||
|-----------------|----------------||
|
|     PM--------|
|  Q  E E E E E E   E. S Q  Q  Q
|-----------------|----------------||
|-----------------|----------------||
|--3--------------|-3----3-----3---||
|--3--------------|-3----3--6--3---||
|--1--1-1-1-1-1-1-|-1----1--6--1---||
|-----------------|---------4------||


 Chorus
  Eb5        Bb5        Ab5
  Gtr I
  W          W          W          S S E S S E S S E  Q
|----------|----------|----------|------------------------|
|----------|----------|----------|------------------------|
|-8--------|----------|----------|------------------------|
|-8--------|-8--------|-6--------|-------------------[5]--|
|-6--------|-8--------|-6--------|-6-6-6-6-6-6-6-6-6-[6]--|
|----------|-6--------|-4--------|-4-4-4-4-4-4-4-4-4------|


  C5                Bb5                 Ab5
    PM|   PM|   PM     PM|   PM|
  E E E E E E E E   E  E E E E E  Q     W          +W
|-----------------|-------------------|----------|--------|
|-----------------|-------------------|----------|--------|
|-----------------|-------------------|----------|--------|
|-5-----5-----5---|-3------3-----[3]--|-6--------|-(6)----|
|-3-3-3-3-3-3-3-3-|-1--1-1-1-1-1-[1]--|-6--------|-(6)----|
|-----------------|-------------------|-4--------|-(4)----|
                    H.            Q


  C5         Ab5        C5                     Eb5
  Gtr II
  W          W          E  E  E E  E  E E  E   W
|----------|----------|----------------------|------|
|----------|----------|-8-------6-------8----|------|
|----------|----------|----8--8----8--8----8-|------|
|----------|----------|----------------------|------|
|----------|----------|----------------------|------|
|----------|----------|----------------------|------|
|
| Gtr III
| W          W          E  E  E E  E  E E  E   W
|----------|----------|----------------------|------|
|----------|----------|----------------------|------|
|----------|----------|-8-------7-------8----|------|
|----------|----------|---10-10---10-10---10-|------|
|----------|----------|----------------------|------|
|----------|----------|----------------------|------|
|
| Gtr I
|                          PM|     PM|     PM
| W          W          E  E  E E  E  E E  E   W
|----------|----------|----------------------|------|
|----------|----------|----------------------|------|
|-5--------|----------|----------------------|-8----|
|-5--------|-6--------|-5-------5-------5----|-8----|
|-3--------|-6--------|-3--3--3-3--3--3-3--3-|-6----|
|----------|-4--------|----------------------|------|


  Ab5
  S S  S  S S S S S S S  S  S S S S S   S S  S  S S S S S S S  S  S S S S S
|-----------6-6-8-8-----------6-6-8-8-|-----------6-6-8-8-----------6-6-8-8-|
|-6-6--9--9---------6-6--9--9---------|-6-6--9--9---------6-6--9--9---------|
|-------------------------------------|-------------------------------------|
|-------------------------------------|-------------------------------------|
|-------------------------------------|-------------------------------------|
|-------------------------------------|-------------------------------------|
|
| S S  S  S S S S S S S  S  S S S S S   S S  S  S S S S S S S  S  S S S S S
|-------------------------------------|-------------------------------------|
|-----------8-8-9-9-----------8-8-9-9-|-----------8-8-9-9-----------8-8-9-9-|
|-5-5-10-10---------5-5-10-10---------|-5-5-10-10---------5-5-10-10---------|
|-------------------------------------|-------------------------------------|
|-------------------------------------|-------------------------------------|
|-------------------------------------|-------------------------------------|
|
|      PM-----------------------------------------------------------------|
| E    S  S S S S S S S  S  S S S S S   S S  S  S S S S S S S  S  S S S S S
|-------------------------------------|-------------------------------------|
|-------------------------------------|-------------------------------------|
|-------------------------------------|-------------------------------------|
|-------------------------------------|-------------------------------------|
|-6-----------------------------------|-------------------------------------|
|-4----4--4-4-4-4-4-4-4--4--4-4-4-4-4-|-4-4--4--4-4-4-4-4-4-4--4--4-4-4-4-4-|


  Bb5
  W                                W
|-6-----------------------------|--------------------||
|-------------------------------|--------------------||
|-------------------------------|--------------------||
|-------------------------------|-------------

ĂŽnscrie-te la newsletter


Like us on Facebook