Through The Fire And Flames Intro Tab - Dragonforce






ARTIST: Dragonforce
TITLE:  Through The Fire And Flames
TABBER:Luke Charman (thisjanuary {AT} gmail.com)
ALBUM:  Inhuman Rampage
GENRE:  Power Metal

---

Well.. yeah. Majorly outta my league, but I had a crack at a few of the simpler parts. A 
of it is probably wrong

but most of the chords are right. Have fun with this one kids ;)

---

Here's Hermans' first riff, the acoustic one. It's ridiculously fast, as is everything, 
I'm wondering whether

he's actually pulling off to open after each of these notes. But these are the notes anyway:

e|------------------------------------------------|
B|------------------------------------------------|
G|-------------------10----15----13----12---------|
D|-10-12-13-10-12-13----13----10----10----10-12-8-|
A|------------------------------------------------|
E|------------------------------------------------|

Here are the power chords played under that riff:

e|------------------------|
B|------------------------|
G|------------------------|
D|-10--------10---8---6-5-|
A|-10--------10---8---6-5-|
E|--8---8888--8---6---4-3-|

Then there's some STUPIDLY fast little run of hammers and pulls in the last of those 
bars, then it's into one

of the main riffs of the song, which is ALL tremolo picked. The notes are:

e|--------------------|
B|--------------------|
G|-12-8---15-8---13-8-|
D|--------------------|
A|--------------------|
E|--------------------|

Play each of the pairs of notes six times. The song has the rhythm. This bit's actually 
easy as long as you can tremolo pick very quickly and have wide enough fingers to make 
move from 15th to 8th fret.

I'll work on some more of this later, some of the solo parts are quite easy to work out, 
just all the fast trills and taps that I can't figure out!


----------------------------------------------------------------------------
Comments? Questions? Corrections? emoluke {AT} gmail.com
----------------------------------------------------------------------------

ĂŽnscrie-te la newsletter


Like us on Facebook