Valley Of The Damned (ver2) Tab - Dragonforce






DRAGONFORCE-VALLEY OF THE ***ED
TABBER-LOJICONE
ALBUM-VALLEY OF THE ***ED

i decided to try and tab this song because the one on here is sorry to say but *crap* 
i thought it need a better tab
with the solo so i decided to do it.and here is it ladies and gentlemen..but sadly its 
all of it yet.but soon i will
put the rest up =D=D=D

PLEASE RATE SO FAR

notations: PM...=palm mute
           h = hammer-on
           p = pull off
           T = Tapping
            = Artificial Harmonic
           // = slide up
           \ = slide down
           (12) = ghost note

TUNING STANDARD (EADGBe)

Rythm Guitar: intro

|-----------------------------------------------------------------------------------------|
|-----------------------------------------------------------------------------------------|
|-----------------------------------------------------------------------------------------|
|-------4h5-------4h5------4h4-------4h5---------4h5-------4h5------4h5------4h5----------|
|-----------------------------------------------------------------------------------------|
|--0-0-------0-0------0-0-------0-0---------3-3-------3-3-------3-3------3-3--------------|

|-----------------------------------------------------------------------------------------|
|-----------------------------------------------------------------------------------------|
|-----------------------------------------------------------------------------------------|
|-0-0--2h4---0-0--2h4---0-0-2h4---0-0--2h4--------2----4h5----5---4----4-4-5-4------------|
|---------------------------------------------3-3---3-------3---2---2---------------------|
|-----------------------------------------------------------------------------------------|

|-----------------------------------------------------------------------------------------|
|-----------------------------------------------------------------------------------------|
|-----------------------------------------------------------------------------------------|
|-------4h5-------4h5------4h4-------4h5---------4h5-------4h5------4h5------4h5----------|
|-----------------------------------------------------------------------------------------|
|--0-0-------0-0------0-0-------0-0---------3-3-------3-3-------3-3------3-3--------------|

|-----------------------------------------------------------------------------------------|
|-----------------------------------------------------------------------------------------|
|-----------------------------------------------------------------------------------------|
|-0-0--2h4---0-0--2h4---0-0-2h4---0-0--2h4--------2----4h5----5---4----4-4-5-4------------|
|---------------------------------------------3-3---3-------3---2---2---------------------|
|-----------------------------------------------------------------------------------------|


Lead guitar1: intro

|------------------------------------------------------------------------------------|
|--7b-7--5-----10B--10--8----10--8--7------7-8--10101010888877778877----5------------|
|-------------------------------------7--9---------------------------7---------------|
|------------------------------------------------------------------------------------|
|------------------------------------------------------------------------------------|
|------------------------------------------------------------------------------------|

|------------------------------------------------------------------------------------|
|--7b-7--5-----10B--10--8----10--8--7------7-8--10101010888877778877-----------------|
|-------------------------------------7--9---------------------------7---4444-222-00-|
|------------------------------------------------------------------------------------|
|------------------------------------------------------------------------------------|
|------------------------------------------------------------------------------------|

Lead guitar 2: intro ending

|------------------------------------------------------------------------------------|
|------------7b-8------7-----7---------5---5-----------------------------------------|
|--7b-7------------7------7-----7---5----------7777-5555-4444444------4--------------|
|--------9---------------------------------------------------------------------------|
|------------------------------------------------------------------------------------|
|------------------------------------------------------------------------------------|

|------------------------------------------------------------------------------------|
|------------7b-8------7-----7---------5---5-----------------------------------------|
|--7b-7------------7------7-----7---5----------7777-5555-444444444444444-------------|
|--------9-----------------------------------------------------------------2---------|
|------------------------------------------------------------------------------------|
|------------------------------------------------------------------------------------|

rythm guitar: intro ending

|-----------------------------------------------------------------------------------------|
|-----------------------------------------------------------------------------------------|
|-----------------------------------------------------------------------------------------|
|-------4h5-------4h5------4h4-------4h5---------4h5-------4h5------4h5------4h5----------|
|-----------------------------------------------------------------------------------------|
|--0-0-------0-0------0-0-------0-0---------3-3-------3-3-------3-3------3-3--------------|

|-----------------------------------------------------------------------------------------|
|-----------------------------------------------------------------------------------------|
|-----------------------------------------------------------------------------------------|
|-0-0--2h4---0-0--2h4---0-0-2h4---0-0--2h4--------2----4h5----5---4----4-4-5-4------------|
|---------------------------------------------3-3---3-------3---2---2-----------2222------|
|------------------------------------------------------------------------------------5533-|

|------------------------------------------------------------------------------------------|
|------------------------------------------------------------------------------------------|
|------------------------------------------------------------------------------------------|
|------------------------------------------------------------------------------------------|
|------------------------------------------------------------------------------------------|
|--0-0-0-0-0-0-0-0-0-0-0-0-0-0-0-0-0-0-0-0-0-0-0-0-0-0-0-0-0-0-0-0-0-0-0-0-0-0-0-0-0-0-0-0-|
pm . . . . . . . . . . . . . . . . . . . . . . . . . . . . . . . . . . . . . . . . . . . .

|------------------------------------------------------------------------------------------|
|------------------------------------------------------------------------------------------|
|---------------------------------------5---7----------------------------------------------|
|---------------------------------------5---7----------------------------------------------|
|--5-5-5-5-5-5-5-5-5-5-5-5-5-5-5-5-5----3---5----------------------------------------------|
|------------------------------------------------------------------------------------------|
pm . . . . . . . . . . . . . . . . .


verse:
|-----------------------------------------------------------------|
|-----------------------------------------------------------------|
|-9-----------------9-----9-----9---9-----------------9-----9-----|
|-9-----------------9-----9-----9---9-----------------9-----9-----|
|-7--7-7-7-7-7-7-7--7-7-7-7-7-7-7---7-7-7-7-7-7-7-7-7-7-7-7-7-7-7-|
|-----------------------------------------------------------------|

|-----------------------------------------------------------------|
|-----------------------------------------------------------------|
|-7--------------7-----7-----7-------5----7-----------------------|
|-7--------------7-----7-----7-------5----7-----------------------|
|-5--5-5-5-5-5-5-5-5-5-5-5-5-5-5-----3----5-----------------------|
|-----------------------------------------------------------------|

|---------------------------------------------------------------------------------------------------------|
|---------------------------------------------------------------------------------------------------------|
|---------------------------------------------------------------------------------------------------------|
|-9-------------------------9---------9--------------9----------------------9---------9-------------------|
|-7-7-7-7-7-7-7-7-7-7-7-7-7-7-7-7-7-7-7-7-7-7-7---5--77-7-7-7-7-7-7-7-7-7-7-7-7-7-7-7-7-------------------|
|-----------------------------------------------7---------------------------------------------------------|

|----------------------------------------------------------------------------------------|
|----------------------------------------------------------------------------------------|
|-----------------------------------------------------------5----7-----------5-----------|
|-7---------------------------7---------7---------7---------5----7-------7---5-----------|
|-5-5-5-5-5-5-5-5-5-5-5-5-5-5-5-5-5-5-5-5-5-5-5-5-5-5-5-----3----5-------7---3-----------|
|------------------------------------------------------------------------5---------------|
                                                 1:13
|------------------------------------------------------------------------------------------|
|------------------------------------------------------------------------------------------|
|---------------------------------------------------5----4----------0-2-0------------------|
|-9-----------9---------------9-------------9--7----5----4----0-2-4-------4-2-0------------|
|-7-7-7-7-7-7-7-7-7-7-7-7-7-7-7-7-7-7-7-7-7-7--7----3----2--3--------------------3-2-------|
|----------------------------------------------5-------------------------------------5\---|

1:13
|------------------------------------------------------------------------------------------|
|-7b-7---5---5--7-8--8b--8--10B---5\0----------------7--8---------------------------------|
|------7---------------------------------9---7-----9--------7--7----7------7--9--7---9--7--|
|----------------------------------------------9-----------------------9-------------------|
|------------------------------------------------------------------------------------------|
|------------------------------------------------------------------------------------------|

|-----------------------------------------------------------------------------------------------------------|
|-------------------------------------------------------------------------------10--12--12------------------|
|-9---7--------7---9--7------9--7--7---7---7-------9----9--9--11--12--11----12--------------12--11-11----9--|
|--------9--9-------------9--------------------9------------------------------------------------------------|
|-----------------------------------------------------------------------------------------------------------|
|-----------------------------------------------------------------------------------------------------------|

|----------------------------------------------------------------------------------------------------------------|
|-------------------------------------------------10--12--12-----------------------------------------------------|
|-12-11-9----------9-9-11-12-9------9-11-12-11-12-------------12-11-11--9--12--11--9------------9-9-11-12--9-----|
|---------12-12-12--------------12----------------------------------------------------12-12-12----------------12-|
|----------------------------------------------------------------------------------------------------------------|
|----------------------------------------------------------------------------------------------------------------|

|-----------------------------------------------------------------------------------------------------|
|----------------------------7b-7--5----10B-10--8--10--8--7--------7-8----101010108888778877-------5--|
|-----11--12--11--9--7---------------------------------------7--9-----------------------------7-------|
|-14--------------------9-----------------------------------------------------------------------------|
|-----------------------------------------------------------------------------------------------------|
|-----------------------------------------------------------------------------------------------------|

|-----------------------------------------------------------------------------|
|--7b-7--5---10B-10--8--10--8--7------7-8--101010108888778877-----------------|
|--------------------------------7--9-------------------------7---------------|
|-----------------------------------------------------------------------------|
|-----------------------------------------------------------------------------|
|-----------------------------------------------------------------------------|

|-----------------------------------------------------------------|
|-----------------------------------------------------------------|
|-9-----------------9-----9-----9---9-----------------9-----9-----|
|-9-----------------9-----9-----9---9-----------------9-----9-----|
|-7--7-7-7-7-7-7-7--7-7-7-7-7-7-7---7-7-7-7-7-7-7-7-7-7-7-7-7-7-7-|
|-----------------------------------------------------------------|

|-----------------------------------------------------------------|
|-----------------------------------------------------------------|
|-7--------------7-----7-----7-------5----7-----------------------|
|-7--------------7-----7-----7-------5----7-----------------------|
|-5--5-5-5-5-5-5-5-5-5-5-5-5-5-5-----3----5-----------------------|
|-----------------------------------------------------------------|

|---------------------------------------------------------------------------------------------------------|
|---------------------------------------------------------------------------------------------------------|
|---------------------------------------------------------------------------------------------------------|
|-9-------------------------9---------9--------------9----------------------9---------9-------------------|
|-7-7-7-7-7-7-7-7-7-7-7-7-7-7-7-7-7-7-7-7-7-7-7---5--77-7-7-7-7-7-7-7-7-7-7-7-7-7-7-7-7-------------------|
|-----------------------------------------------7---------------------------------------------------------|

|----------------------------------------------------------------------------------------|
|----------------------------------------------------------------------------------------|
|-----------------------------------------------------------5----7-----------5-----------|
|-7---------------------------7---------7---------7---------5----7-------7---5-----------|
|-5-5-5-5-5-5-5-5-5-5-5-5-5-5-5-5-5-5-5-5-5-5-5-5-5-5-5-----3----5-------7---3-----------|
|------------------------------------------------------------------------5---------------|

|----------------------------------------------------------------------------------------|
|----------------------------------------------------------------------------------------|
|------------------------------------------------------------5---------4-----------------|
|-9-------9---------------9-----------9---------9--------7---5---------4-----------------|
|-7-7-7-7-7-7-7-7-7-7-7-7-7-7-7-7-7-7-7-7-7-7-7-7-7-7----7---3---------2-----------------|
|--------------------------------------------------------5-------------------------------|

|------------------------------------------------------------------------------------------|
|-7b-7---5---5--7-8--8b--8--10B---5\0----------------7--8---------------------------------|
|------7---------------------------------9---7-----9--------7--7----7------7--9--7---9--7--|
|----------------------------------------------9-----------------------9-------------------|
|------------------------------------------------------------------------------------------|
|------------------------------------------------------------------------------------------|

|-----------------------------------------------------------------------------------------------------------|
|-------------------------------------------------------------------------------10--12--12------------------|
|-9---7--------7---9--7------9--7--7---7---7-------9----9--9--11--12--11----12--------------12--11-11----9--|
|--------9--9-------------9--------------------9------------------------------------------------------------|
|-----------------------------------------------------------------------------------------------------------|
|-----------------------------------------------------------------------------------------------------------|

|----------------------------------------------------------------------------------------------------------------|
|-------------------------------------------------10--12--12-----------------------------------------------------|
|-12-11-9----------9-9-11-12-9------9-11-12-11-12-------------12-11-11--9--12--11--9------------9-9-11-12--9-----|
|---------12-12-12--------------12----------------------------------------------------12-12-12----------------12-|
|----------------------------------------------------------------------------------------------------------------|
|----------------------------------------------------------------------------------------------------------------|

|--------------------------------------------|
|--------------------------------------------|
|-----11--12--11--9--7-----------------------|
|-14-----------------------------------------|
|--------------------------------------------|
|--------------------------------------------|

SOLO!!!!!!SOLO!!!!!!SOLO!!!!!!SOLO!!!!!

  T                       T                       T                       T           T
|-20-19p15----------15h19-20-19p15----------15h19-20-19p15----------15h19-22-19p15h19-22---|
|----------17----17----------------17----17----------------17----17------------------------|
|-------------16----------------------16----------------------16---------------------------|
|------------------------------------------------------------------------------------------|
|------------------------------------------------------------------------------------------|
|------------------------------------------------------------------------------------------|
  T                       T                       T                       T           T
|-20-19p15----------15h19-20-19p15----------15h19-20-19p15----------15h19-22-19p15h19-22---|
|----------17----17----------------17----17----------------17----17------------------------|
|-------------16----------------------16----------------------16---------------------------|
|------------------------------------------------------------------------------------------|
|------------------------------------------------------------------------------------------|
|------------------------------------------------------------------------------------------|
  T                       T                       T                       T           T
|-20-19p15----------15h19-20-19p15----------15h19-20-19p15----------15h19-22-19p15h19-22---|
|----------17----17----------------17----17----------------17----17------------------------|
|-------------16----------------------16----------------------16---------------------------|
|------------------------------------------------------------------------------------------|
|------------------------------------------------------------------------------------------|
|------------------------------------------------------------------------------------------|
  T                                                             T
|-20-19p15------------------------------------------------15h19-20-19p15----------------15h19-24-19p15-------|
|----------17-20-17------------------------------------17----------------17----------17----------------17----|
|-------------------16-21-16------------------------16----------------------16----16-------------------------|
|----------------------------17-21-17------------17----------------------------17----------------------------|
|-------------------------------------19-22-19-19------------------------------------------------------------|
|------------------------------------------------------------------------------------------------------------|

  T                       T                       T                       T           T
|-20-19p15----------15h19-20-19p15----------15h19-20-19p15----------15h19-22-19p15h19-22---|
|----------17----17----------------17----17----------------17----17------------------------|
|-------------16----------------------16----------------------16---------------------------|
|------------------------------------------------------------------------------------------|
|------------------------------------------------------------------------------------------|
|------------------------------------------------------------------------------------------|
  T                       T                       T                       T           T
|-20-19p15----------15h19-20-19p15----------15h19-20-19p15----------15h19-22-19p15h19-22---|
|----------17----17----------------17----17----------------17----17------------------------|
|-------------16----------------------16----------------------16---------------------------|
|------------------------------------------------------------------------------------------|
|------------------------------------------------------------------------------------------|
|------------------------------------------------------------------------------------------|
  T                       T                       T                       T           T
|-20-19p15----------15h19-20-19p15----------15h19-20-19p15----------15h19-22-19p15h19-22---|
|----------17----17----------------17----17----------------17----17------------------------|
|-------------16----------------------16----------------------16---------------------------|
|------------------------------------------------------------------------------------------|
|------------------------------------------------------------------------------------------|
|------------------------------------------------------------------------------------------|

  T                                                             T                             T
|-20-19p15------------------------------------------------15h19-20-19p15----------------15h19-24-19p15-------|
|----------17-20-17------------------------------------17----------------17----------17----------------17----|
|-------------------16-21-16------------------------16----------------------16----16-------------------------|
|----------------------------17-21-17------------17----------------------------17----------------------------|
|-------------------------------------19-22-19-19------------------------------------------------------------|
|------------------------------------------------------------------------------------------------------------|

  T                       T                       T                       T           T
|-20-19p15----------15h19-20-19p15----------15h19-20-19p15----------15h19-22-19p15h19-22---|
|----------17----17----------------17----17----------------17----17------------------------|
|-------------16----------------------16----------------------16---------------------------|
|------------------------------------------------------------------------------------------|
|------------------------------------------------------------------------------------------|
|------------------------------------------------------------------------------------------|
  T                       T                       T                       T           T
|-20-19p15----------15h19-20-19p15----------15h19-20-19p15----------15h19-22-19p15h19-22---|
|----------17----17----------------17----17----------------17----17------------------------|
|-------------16----------------------16----------------------16---------------------------|
|------------------------------------------------------------------------------------------|
|------------------------------------------------------------------------------------------|
|------------------------------------------------------------------------------------------|
  T                       T                       T                       T           T
|-20-19p15----------15h19-20-19p15----------15h19-20-19p15----------15h19-22-19p15h19-22---|
|----------17----17----------------17----17----------------17----17------------------------|
|-------------16----------------------16----------------------16---------------------------|
|------------------------------------------------------------------------------------------|
|------------------------------------------------------------------------------------------|
|------------------------------------------------------------------------------------------|

  T                                                             T                             T
|-20-19p15------------------------------------------------15h19-20-19p15----------------15h19-24-19p15-------|
|----------17-20-17------------------------------------17----------------17----------17----------------17----|
|-------------------16-21-16------------------------16----------------------16----16-------------------------|
|----------------------------17-21-17------------17----------------------------17----------------------------|
|-------------------------------------19-22-19-19------------------------------------------------------------|
|------------------------------------------------------------------------------------------------------------|


  T                       T                       T                       T           T
|-20-19p15----------15h19-20-19p15----------15h19-20-19p15----------15h19-22-19p15h19-22---|
|----------17----17----------------17----17----------------17----17------------------------|
|-------------16----------------------16----------------------16---------------------------|
|------------------------------------------------------------------------------------------|
|------------------------------------------------------------------------------------------|
|------------------------------------------------------------------------------------------|
  T                       T                       T                       T           T
|-20-19p15----------15h19-20-19p15----------15h19-20-19p15----------15h19-24-19p15h19-24---|
|----------17----17----------------17----17----------------17----17------------------------|
|-------------16----------------------16----------------------16---------------------------|
|------------------------------------------------------------------------------------------|
|------------------------------------------------------------------------------------------|
|------------------------------------------------------------------------------------------|
  T                       T                       T                       T           T
|-20-19p15----------15h19-20-19p15----------15h19-20-19p15----------15h19-22-19p15h19-22---|
|----------17----17----------------17----17----------------17----17------------------------|
|-------------16----------------------16----------------------16---------------------------|
|------------------------------------------------------------------------------------------|
|------------------------------------------------------------------------------------------|
|------------------------------------------------------------------------------------------|

  T                                                                                T
|-20-19p15-------------------------------------------------------------------15h19-20-19p15-----------|
|----------17-20-17-------------------------------------------------17-20-17----------------17--------|
|-------------------16-21-16-------------------------------16-21-16-----------------------------------|
|----------------------------17-21-17-------------17-21-17--------------------------------------------|
|-------------------------------------19-22-19-19-----------------------------------------------------|
|-----------------------------------------------------------------------------------------------------|

SOLO2!!!!!SOLO2!!!!!!SOLO2!!!!!SOLO2!!!!!

|------------------------------------------------------------12-12-10-12---12-15-12-----15B--17--17-17--15--17B-|
|----7b--8b--12---13--12--10----10--12--12--10-12--12-15-12-----------------------------------------------------|
|-7B-------------------------12---------------------------------------------------------------------------------|
|---------------------------------------------------------------------------------------------------------------|
|---------------------------------------------------------------------------------------------------------------|
|---------------------------------------------------------------------------------------------------------------|

|-17--15--------------------------------------------------------------------------------------|
|---------17-15-17----1919151517171313151512121313101013-12--12--10------10/135---//2415----|
|--------------------------------------------------------------------12-----------------------|
|---------------------------------------------------------------------------------------------|
|---------------------------------------------------------------------------------------------|
|---------------------------------------------------------------------------------------------|

SOLO3!!!!!!SOLO3!!!!!!SOLO3!!!!!!
  T                       T              T         T              T
|-20-19p15----------15h19-20-19p15-----------------20-19p15-------------------------------|
|----------17----17----------------17-----------------------17--------------------------------|
|-------------16----------------------16-21-16-----------------16-21-16h17p16h17p16-----------|
|----------------------------------------------17---------------------------------------------|
|---------------------------------------------------------------------------------------------|
|---------------------------------------------------------------------------------------------|
  T                       T                        T     T
|-20-19p15----------15h19-20-19p15----------15h19-20-15-22-15----------------------------|
|----------17----17----------------17----17-------------------17-19-17------------------------|
|-------------16----------------------16--------------------------------19p17----16-----------|
|---------------------------------------------------------------------------------------------|
|---------------------------------------------------------------------------------------------|
|---------------------------------------------------------------------------------------------|
  T
|-20-19p15---------12/20(12)----------12/19(12)----------12/17(12)----|
|----------17---17------------17----17------------17----17-------------------|
|-------------16-----------------16------------------16----------------------|
|----------------------------------------------------------------------------|
|----------------------------------------------------------------------------|
|----------------------------------------------------------------------------|
                                T              T              T
|-19p15----------15h17p15-------------------------------------------------|
|-------17----17----------17----20-17----------------------------------------------------|
|----------16----------------16-------16----16-21-16-------------------------------------|
|----------------------------------------17----------17----17-21-17----------------------|
|-------------------------------------------------------19----------19-------------------|
|----------------------------------------------------------------------------------------|

ĂŽnscrie-te la newsletter


Like us on Facebook