Im Shipping Up To Boston Intro Tab - Dropkick Murphys






Band: Dropkick Murphys
Song: I'm Shipping Up To Boston
Tabbed By: Ashutosh

Tuning: Standard

Intro Melody:
|------------------------|
|-------------7-8-7------|
|--9--7-9-7-9-------9-7--|
|------------------------|
|------------------------|
|------------------------|


|-----------------7------|
|-------------7-8--------|
|--9--7-9-7-9------------|
|------------------------|
|------------------------|
|------------------------|


|------------------------|
|-------------7-8-7------|
|--9--7-9-7-9-------9-7--|
|------------------------|
|------------------------|
|------------------------|


|--7-5---5---------------|
|------8---8-7-8-7-3-5---|
|------------------------|
|------------------------|
|------------------------|
|------------------------|

ĂŽnscrie-te la newsletter


Like us on Facebook