Shipping Up To Boston (ver2) Tab - Dropkick Murphys






Song: Shipping Up To Boston
Band: Dropkick Murphys
Album: Warrior's Code
Tabbed By: Masterbasser36

Notes:
1.-For Guitar II: Figure 1 comes before each of the others everytime,
order is much like: fig 1 -> fig 2 -> fig 1 -> fig 3 -> fig 1 -> fig 4
2.-These parts are not necessarily played together
3.-This version is simplified a bit

Guitar 1
|----------------||---------|
|----------------||---------|
|----------------||---------|
|-2-2--2-2--2-2--||---------|
|-2-2--2-2--2-2--||-5~--3~--|
|-0-0--0-0--0-0--||-3~--1~--|

Guitar II
     1            2            3                     4
|-0-00-0-||-2-3-5-3-2-0-||-2-3-5-7~-||-2-3-5-3-2-0-8-7-5-7-5-3-5-3-2-0-|
|--------||-------------||----------||---------------------------------|
|--------||-------------||----------||---------------------------------|
|--------||-------------||----------||---------------------------------|
|--------||-------------||----------||---------------------------------|
|--------||-------------||----------||---------------------------------|

Enjoy!
Please rate too!






Like us on Facebook