State Of Massachusetts Intro Tab - Dropkick Murphys






This intro is played on a banjo, but it sounds fine on an acoustic guitar -
just play the note as close to the bridge as possible.. that gives it the
twangy sound.


intro

-------------------------------------------------------|
-------------------------------------------------------|
-777-7-2-0-------0-2-----------------------------------|
------------3-33--------------------------------   x 2-|
---------------------3-33-0-3-5555---------------------|
-------------------------------------------------------|


-----------------------------------------------------|
-----------6-66-5------------------------------------|
-7-77-2-0---------7--5555---5--7777------------------|
--------------------------7--------------------------|
-----------------------------------------------------|
-----------------------------------------------------|


now here there is some low note picking between each high
note but I cannot make it out.  If I get it I'll update.

--------------5----------------------|
------5---6-------8---6---5----------|
--7----------------------------------|
-------------------------------------|
-------------------------------------|
-------------------------------------|

ĂŽnscrie-te la newsletter


Like us on Facebook