Sunshine Highway Tab - Dropkick Murphys






Standard Tuning
ok here's the song without the solo, cuz its hard. dont forget to check this band out
at your local warped tour.

Intro 1
|--------------------------------------|
|--------------------------------------|
|-----------------8--8-8--8-8--8-8--8--|
|--6~--6~--6~--6--8--8-8--8-8--8-8--8--|
|--6~--6~--6~--6--6--6-6--6-6--6-6--6--|
|--4~--4~--4~--4-----------------------|

Intro 2/Chorus
|-----------------------------------|------|
|-----------------------------------|------|
|----------8--8-8--6--6-6--8--8-8-x4|------|
|--6--6-6--8--8-8--6--6-6--8--8-8---|--6~--|
|--6--6-6--6--6-6--4--4-4--6--6-6---|--6~--|
|--4--4-4---------------------------|--4~--|

accordion part for guitar
|--8-8-6-6-------------6-8---8-8-6-6-------------6~--|
|----------9-9-6---9-9---------------9-9-6---9-9-----|
|----------------8-------------------------8---------| x2
|----------------------------------------------------|
|----------------------------------------------------|
|----------------------------------------------------|

Verse
|----------------|
|----------------|
|-------8--------|
|--6----8----6~--|
|--6----6----6~--|
|--4---------4~--|

there ya have it. basically it except the solo. you can improvise the rest.

ĂŽnscrie-te la newsletter


Like us on Facebook