Surrender Bass Tab - Dropkick Murphys






Intro:
---------------------------------|
---------------------------------|
---------------------------------|
---------------------------------|
Riff:
---------------------------------|
---------------------------------|
1_-----6_------------------------|
--1_-4_--------------------------|[x2]
Verse:
---------------------------------|
---------------------------------|
1_-----6_------------------------|
--1_-4_--------------------------|[x2]
Chorus:
---------------------------------|
---------------------------------|
1_-----6_------------------------|
--1_-4_--------------------------|[x2]
Verse:
---------------------------------|
---------------------------------|
1_-----6_------------------------|
--1_-4_--------------------------|[x2]
Chorus:
---------------------------------|
---------------------------------|
1_-----6_------------------------|
--1_-4_--------------------------|[x2]
Bridge:
---------------------------------|
--------8_-3-5-6_----------------|
------6_---------6_--------------|
1-3-4_---------------------------|[x2]
Riff[2]:
---------------------------------|
---------------------------------|
----6----------------------------|
1-4---6--------------------------|[x2]
Riff[3]
---------------------------------|
---------------------------------|
----6----------------------------|
1-4------------------------------|[x1]
Chorus:
---------------------------------|
---------------------------------|
1_-----6_------------------------|
--1_-4_--------------------------|[x2]
Bridge:
---------------------------------|
--------8_-3-5-6_----------------|
------6_---------6_--------------|
1-3-4_---------------------------|[x2]
Riff[2]
---------------------------------|
---------------------------------|
----6----------------------------|
1-4---6--------------------------|[x2]
Riff[3]
---------------------------------|
---------------------------------|
----6----------------------------|
1-4------------------------------|[x1]

ĂŽnscrie-te la newsletter


Like us on Facebook