Workers Song Intro Tab - Dropkick Murphys






I loved teh bagpipe intro to this song, so I had to submit this in as soon as I figured
it out on guitar.  Trust me on this.  I only submit tabs if they're 100% correct.  It
wasn't that hard to translate, so here you go:


Song:    Workers Song
Artist:  Dropkick Murphys
Album:   Blackout

This is played right before the bagpipes start.
------------|
------------|
------------|
------------|
-5---3---1--|
------------|

Now HERES the bagpipe intro 1st part only (transcribed, of course)
----------------------------------------------|
----------------------------------------------|
---10---7------------12---8--------10---------|
------------10---8------------10--------------|
----------------------------------------------|
----------------------------------------------|

And heres the ending of the intro (sounds like an oximoron, doesnt it?
---------------------------------------------------|
---------------------------------------------------|
---10---7-----------------7------------------------|
------------10---8---10-------10---8---------------|
---------------------------------------------------|
---------------------------------------------------|


That is absolutely correct.  Ive played it with bands doing covers and it sounds 
 Enjoy.

ĂŽnscrie-te la newsletter


Like us on Facebook