Feel Like I Do Intro Tab - Drowning Pool






Drowning Pool
Feel Like I Do

Tuning Drop B


Intro Riff - Guitar only
Played with Flanger effect

C# |----------------------------------------------------------------------------|
G# |----------------------------------------------------------------------------|
E  |----------------------------------------------------------------------------|
B  |---------------------------------------------------------3------------------|
F# |-----------------3-------------------------3----5--3--5-----5--3--5---------|
B  |---0----0--3--5------5--3----0----0--3--5-----------------------------------|


C# |----------------------------------------------------------------------------|
G# |----------------------------------------------------------------------------|
E  |----------------------------------------------------------------------------|
B  |----------------------------------------------------------------------------|
F# |-----------------3------------5--5--5--5--5--5--5--5---------------------3--|
B  |---0----0--3--5------5--3-----0--6--0--6--0--6--0--6---0--5--0--5--0--5--3--|


Then the same Riff without Flanger  (now plays a full Band)

This riff is played in the chorus too

I working on tab for the whole song.....Be patient  :D






Like us on Facebook