Love And War Solo Tab - Drowning Pool






-----------------------------------------------------------------------------
Love and War - Drowning Pool
-----------------------------------------------------------------------------
Tabbed by: deflep86
Email: anc024@iwon.com

Tuning: Low to high: B F# B E G# C#

(dist.)
|---------------------------------------------------------------------------|
|---------------------------------------------------------------------------|
|--------------------10-12-12p10--------------------------------------------|
|---19^(21)19--10h12-------------12-10-10-12^(13)12^(13)12-10h12-10--10-----|
|---17^(19)17------------------------------------------------------12--12-10|
|-0-------------------------------------------------------------------------|

On this part you dont have to play the 11, but i think it sounds a little better this way.
       /---------------------------------------------------------------------|
|-------11------11------11----------------------------------------------------|
|------/14^(15)-14^(15)-14^(15)~-15-15-18p15-15-20p15-15-17p15-18p15-15-15----|
|-----------------------------------------------------------------------------|
|-----------------------------------------------------------------------------|
|-----------------------------------------------------------------------------|
|-----------------------------------------------------------------------------|

|--------------------------------------------------------------------------|
|--17-17-17-17-17h18p17-15----15h17p15--14^(15)14~--147~------------------|
|--------------------------------------------------------------------------|
|--------------------------------------------------------------------------|
|--------------------------------------------------------------------------|
|--------------------------------------------------------------------------|


| /  slide up
|   slide down
| h  hammer-on
| p  pull-off
| ~  vibrato
| +  harmonic
| x  Mute note
=============================================================================






Like us on Facebook