Reminded Tab - Drowning Pool






Band- Drowning Pool
Song- Reminded

Tuning: Drop C (C G C F A D)

Intro
D  ----------------------------------------------------------|
A  ----------------------------------------------------------|
F  ----------------------------------------------------------|
C  ----------------------------------------------------------|  3x
G  ----------------------------------------------------------|
C  ---7-7-75-5-5/8-8-85-5-5/7-75/7-7-7-5/8-8-85-5-5------|

2nd Intro, sort of like Chorus
D  --------------------------------|
A  --------------------------------|
F  --------------------------------|   2x
C  ---7-7-5--8-5--7-5-7-7-5-8-5----|
G  ---7-7-5--8-5--7-5-7-7-5-8-5----|
C  ---7-7-5--8-5--7-5-7-7-5-8-5----|

D  ----------------------|
A  ----------------------|
F  ----------------------|
C  ---97/10-7-/5-7----|   Repeat this until verse starts....
G  ---75/-8--5/-7-5---|
C  ----------------------|

Verse, ALL PALM MUTED EXEPT FOR THE LAST NOTE, ---> (5) 






Like us on Facebook