Rise Up Intro Tab - Drowning Pool






-------------------------------------------------------------------------------
     Rise up- Drowning pool
-------------------------------------------------------------------------------
Tabbed by: alex
Email:

Tuning:e

intro & verse part

e|-------------------------------------------------------------------------|
B|--------------------------0----------------------------------------------|
G|--------1---1-----1---1------1-------------------------------------------|
D|-------------------------------3-2---------------------------------------|
A|-------------------------------------------------------------------------|
E|----2-2---2---2-2---2----------------------------------------------------|






Like us on Facebook