Sermon Tab - Drowning Pool






#----------------------------------PLEASE NOTE--------------------------------#
#This file is the author's own work and represents their interpretation of the#
#song. You may only use this file for private study, scholarship, or research.#
#-----------------------------------------------------------------------------#
#-- File created with Instab - http://www.pconline.com/~smcarey/instab.html --#
#-----------------------------------------------------------------------------#

Author/Artist: Drowning Pool
Title: Sermon
Transcribed by: J. Keller
Email: x_hellfire_x@hotmail.com

This is my own version of the song. so there may be some mistakes

Play drop C

use heavy distortion

x = muted note
b = bend note
/ = slide up
 = slide down
 

------------------------------------------------------------------------------
------------------------------------------------------------------------------
------------------------------------------------------------------------------
------------------------------------------------------------------------------
------------------------------------------------------------------------------
-6x-0x-5x-0x-6x-0x-5x-0x-6x-5x-3x-5x-6x-0x-5x-0x-6x-0x-5x-0x-6x-5x-3x-5x------
                                                                              

------------------------------------------------------------------------------
------------------------------------------------------------------------------
------------------------------------------------------------------------------
-6--0--5--0--6--0--5--0--6-5-3-5----------------------------------------------
-6--0--5--0--6--0--5--0--6-5-3-5----------------------------------------------
-6--0--5--0--6--0--5--0--6-5-3-5----------------------------------------------
    play verse 12x                                                            

------------------------------------------------------------------------------
------------------------------------------------------------------------------
------------------------------------------------------------------------------
------------------------------------------------------------------------------
------------------------------------------------------------------------------
-5x-5x-6x-5x-3x-6x------------------------------------------------------------
 play verse 12x      play as quarter notes                                    

------------------------------------------------------------------------------
------------------------------------------------------------------------------
------------------------------------------------------------------------------
-------------------------------------------------------5-5-5-3-3--------------
--------5-5-5--------5-5-5-3-3------------5-5-5-------------------------------
-5x5x5x-------6x6x6x-----------6x6x5x5x5x-------6x6x6x-----------6x6x---------
    play verse 4x    play as 8th notes                                        

------------------------------------------------------------------------------
------------------------------------------------------------------------------
------------------------------------------------------------------------------
-5--5--6---6b--5--5--6---6b--5--5--6---6b--5--5--6---6






Like us on Facebook