Sinner (album) Tab - Drowning Pool






DROWNIGPOOL SINNER ALBUM
MIXED BY:JOE ADZHIYEV
this is mix of the songs on sinner it is the album. i take no credit for these tabs i
just mixed it up
Sinner

Transcribed By: Jephthah Rae
Email: jeffrae@knet.ca

Drop B:
B F# B E G# C#

Intro: w/ wah

e-----------------------------------------------------------------|
b-----------------------------------------------------------------|
g---------5/7-----5/8-8-8-8-8---------5/7-----5/8-8-8-81111-------|
d-0---0-0-x-x-0-0-x-x-x-x-x-x-0---0-0-x-x-0-0-x-x-x-x-x-x-x-0-3---|
a-0---0-0-3/5-0-0-3/6-6-6-6-6-0---0-0-3/5-0-0-3/6-6-6-6/9-9-0-3---|
d-0---0-0-----0-0-------------0---0-0-----0-0---------------0-3---|

e-----------------------------------------------------------------|
b-----------------------------------------------------------------|
g-----------------------------------------------------------------|
d-3---3---3---3---3---3---3-2----2---2---2---1-1---1---1-1-1-0----|
a-3---3---3---3---3---3---3-2----2---2---2---1-1---1---1-1-1-0----|
d-3---3---3---3---3---3---3-2----2---2---2---1-1---1---1-1-1-0----|

Verses:

e-----------------------------------------------------------------|
b-----------------------------------------------------------------|
g-----------------------------------------------------------------|
d-----------------------------------------------------------------|
a----0-0------------------------0---0-0--------------------0------|
d----0-0------------------------0---0-0--------------------0------|

e-----------------------------------------------------------------|
b-----------------------------------------------------------------|
g-----------------------------------------------------------------|
d-----------------------------------------------------x-x-x-x-x---|
a----0-0------------------------0---0-0-----------0-0-0-0-0-0-0-0-|
d----0-0------------------------0---0-0-----------0-0-----------0-|

e-----------------------------------------------------------------|
b-----------------------------------------------------------------|
g-----------------------------------------------------------------|
d-----------------------------------------------------------------|
a--------3h5-----3/6-6-6-6/9------------3h5-----3/6-6-6-6/9-------|
d----0-0-----0-0-------------0-0----0-0-----0-0-------------0-0---|

e-----------------------------------------------------------------|
b-----------------------------------------------------------------|
g-----------------------------------------------------------------|
d-----------------------------------------------------------------|
a--------3h5-----3/6-6-6-6/9------------3h5-----3p0---------------|
d----0-0-----0-0-------------0-0----0-0-----0-0-----7-6-5-3-5-3---|

Chorus:

e-----------------------------------------------------------------|
b-----------------------------------------------------------------|
g----------7----7-7---7-7-7-7--75----5---5-5----5---4---4---5----|
d-0----0---x----x-x---x-x-x-x--x-x----x---x-x----x---x---x---3----|
a-0----0---5----5-5---5-5-5-5--53----3---3-3----3---2---2---3----|
d-0----0-----------------------------------------------------3----|

e-----------------------------------------------------------------|
b-----------------------------------------------------------------|
g---------14----14-14-14-14-14-1412--12--12--12-12---12-12---12--|
d-0----0---x-----x--x--x--x--x--x--x---x---x---x--x----x--x----x--|
a-0----0--12----12-12-12-12-12-1210--10--10--10-10---10-10---10--|
d-0----0---0-----0--0--0--0--0------------------------------------|

e-----------------------------------------------------------------|
b-----------------------------------------------------------------|
g----------7----7-7---7-7-7-7--75----5---5-5----5---4---4---5----|
d-0----0---x----x-x---x-x-x-x--x-x----x---x-x----x---x---x---3----|
a-0----0---5----5-5---5-5-5-5--53----3---3-3----3---2---2---3----|
d-0----0-----------------------------------------------------3----|

e-----------------------------------------------------------------|
b-----------------------------------------------------------------|
g---------14----14-14-14-14-14-1412--12------5--5----5--5--7-----|
d-0----0---x-----x--x--x--x--x--x--x---x------x--x----x--x--x-----|
a-0----0--12----12-12-12-12-12-1210--10------3--3----3--3--5--0--|
d-0----0---0-----0--0--0--0--0---------------------------------0--|

Intro/Verse/Chorus

Bridge:

e-----------------------------------------------------------------|
b-----------------------------------------------------------------|
g-----------------------------------------------------------------|
d-0-------------3--------------5--------------6-5------6-5-----x-|
a-0-------------3--------------5--------------6-5------6-5-----x-|
d-0-------------3--------------5--------------6-5------6-5-----x-|

Mini Solo: w/ wah

gtr. 3

e-----------------------------------------------------------------|
b-----------------------------------------------------------------|
g-----------------------------------------------------------------|
d-6p0-5p0-3h5-0-6p0-5p0-3h5p3-5---6p0-5p0-3h5-0-6p0-5p0-3h5p3-5---|
a-----------------------------------------------------------------|
d-----------------------------------------------------------------|

gtr. 1&2

e-----------------------------------------------------------------|
b-----------------------------------------------------------------|
g-----------------------------------------------------------------|
d-----------------------------------------------------------------|
a-----------------------------------------------------------------|
d-6p0-5p0-3-5-0-6p0-5-5-3-5-3-5-3-6p0-5p0-3-5-0-6p0-5-5-3-5-3-5-3-|

gtr. 3

e-----------------------------------------------------------------|
b-----------------------------------------------------------------|
g-----------------------------------------------------------------|
d-6p0-5p0-3h5-0-6p0-5p0-3h5p3-5---6p0-5p0-3h5-0-6p0-5p0-3h5p3p0---|
a-----------------------------------------------------------------|
d-----------------------------------------------------------------|

gtr. 1&2

e-----------------------------------------------------------------|
b-----------------------------------------------------------------|
g-----------------------------------------------------------------|
d-----------------------------------------------------------------|
a---------------------------------------------------------------0-|
d-6p0-5p0-3-5-0-6p0-5-5-3-5-3-5-3-6p0-5p0-3-5-0-6p0-5-5-3-5-3---0-|

Guitar Solo:

gtr. 4 w/ wah half cocked

e-17--------------------------------------------------------------
b-20b~~~~~~~~~~~~~~~~~~~~~~~~~~~~~~~~~~~~~~~~~~~~~~~~~~~~~~~~~~~--
g-----------------------------------------------------------------|
d-----------------------------------------------------------------|
a-----------------------------------------------------------------|
d-----------------------------------------------------------------|

gtr. 3 (trem pick)

e-----------------------------------------------------------------|
b-10-----------------10-----------10---------------10-------------|
g-12b~~~~~~~~~~~~~~~-12b~~~~~~~~~-12b~~~~~~~~~~~~~-12b~~~~~~~~~~--|
d-----------------------------------------------------------------|
a-----------------------------------------------------------------|
d-----------------------------------------------------------------|

gtr. 1&2

e-----------------------------------------------------------------|
b-----------------------------------------------------------------|
g-----------------------------------------------------------------|
d-6----5----0-6----6----0----0-----6----5----0-6----6----0---0----|
a-6----5----0-6----6----0----0-----6----5----0-6----6----0---0----|
d-6----5----0-6----6----0----0-----6----5----0-6----6----0---0----|


Outro Chorus:

x3
e-----------------------------------------------------------------|
b-----------------------------------------------------------------|
g-----------7-----7--7---7-7-7-7-75-----5-----5--5---------------|
d-0-----0---7-----7--7---7-7-7-7-75-----5-----5--5----3---3---5--|
a-0-----0---5-----5--5---5-5-5-5-53-----3-----3--3----3---3---5--|
d-0-----0----------------------------------------------3---3---5--|

then
e-----------------------------------------------------------------|
b-----------------------------------------------------------------|
g-----------7-----7--7---7-7-7-7-75-----5-----5--5---5-5-7-7----|
d-0-----0---7-----7--7---7-7-7-7-75-----5-----5--5---x-x-x-x----|
a-0-----0---5-----5--5---5-5-5-5-53-----3-----3--3---3-3-5-5----|
d-0-----0---------------------------------------------------------|
Author/Artist: Drowning Pool
Title: Bodies
Album: Sinner
Transcribed by: J. Keller
Email: x_hellfire_x@hotmail.com

Tune down to C
use wah
x = muted note
 = slide down

------------------------------------------------------------------------------|
------------------------------------------------------------------------------|
-7-7-7------------------------------------------------------------------------|
-7-7-7-6--6-6-6-0-0-0--6-6-3-1------------------------------------------------|
-5-5-5-6--6-6-6-0-0-0--6-6-3-1------------------------------------------------|
-------6--6-6-6-0-0-0--6-6-3-1------------------------------------------------|
        play verse 2x

-------10-10-10-10-10-10-10-10---------15-15-15-15-15-15-15-15----------------|
-------10-10-10-10-10-10-10-10---------15-15-15-15-15-15-15-15----------------|
---------------------------------------15-15-15-15-15-15-15-15----------------|
------------------------------------------------------------------------------|
------------------------------------------------------------------------------|
------------------------------------------------------------------------------|
        play verse 4x
------------------------|----------------------------------------------------|
------------------------|----------------------------------------------------|
------------------------|----------------------------------------------------|
------------------------|-0x--0-3-3-5-5-7-7----------------------------------|
-0x--0x-1x-0x--0x-1x-3x-|-0x--0-3-3-5-5-7-7----------------------------------|
-0x--0x-1x-0x--0x-1x-3x-|-0x--0-3-3-5-5-7-7----------------------------------|
   play verse 7x

-----------10-10-10------------15-15-15-|----------10-10-10--------15-15-15--|
-----------10-10-10------------15-15-15-|----------10-10-10--------15-15-15--|
-------------------------------15-15-15-|------------------------------------|
-0x-0x-0x------------0x-0x-0x-----------|-0x-0x-0x-----------0-0-0-----------|
-0x-0x-0x------------0x-0x-0x-----------|-0x-0x-0x-----------0-0-0-----------|
-0x-0x-0x------------0x-0x-0x-----------|-0x-0x-0x-----------0-0-0-----------|
       play verse 3x

------------------------------------------------------------------------------|
------------------------------------------------------------------------------|
-7-7-7------------------------------------------------------------------------|
-7-7-7-6--6-6-6-0-0-0-6--6-3-1------------------------------------------------|
-5-5-5-6--6-6-6-0-0-0-6--6-3-1------------------------------------------------|
-------6--6-6-6-0-0-0-6--6-3-1------------------------------------------------|
         play verse 4x

-------10-10-10-10-10-10-10-10-----15-15-15-15-15-15-15-15--------------------|
-------10-10-10-10-10-10-10-10-----15-15-15-15-15-15-15-15--------------------|
-----------------------------------15-15-15-15-15-15-15-15--------------------|
------------------------------------------------------------------------------|
------------------------------------------------------------------------------|
------------------------------------------------------------------------------|
            play verse 2x

------------------------|-----------------------------------------------------|
------------------------|-----------------------------------------------------|
------------------------|-----------------------------------------------------|
------------------------|-0x-0-3-3-5-5-7-7------------------------------------|
-0x--0x-1x-0x--0x-1x-3x-|-0x-0-3-3-5-5-7-7------------------------------------|
-0x--0x-1x-0x--0x-1x-3x-|-0x-0-3-3-5-5-7-7------------------------------------|
     play verse 7x

----------10-10-10-----------15-15-15-|---------------------------------------|
----------10-10-10-----------15-15-15-|---------------------------------------|
-----------------------------15-15-15-|---------------------------------------|
-0x-0x-0x-----------0x-0x-0x----------|-0-0-0-0-6-6-6-6-----------------------|
-0x-0x-0x-----------0x-0x-0x----------|-0-0-0-0-6-6-6-6-----------------------|
-0x-0x-0x-----------0x-0x-0x----------|-0-0-0-0-6-6-6-6-----------------------|
       play verse 3x

------------------------------------------------------------------------------|
------------------------------------------------------------------------------|
-7-7-7------------------------------------------------------------------------|
-7-7-7-6--6-6-6-0-0-0-6--6-3-1------------------------------------------------|
-5-5-5-6--6-6-6-0-0-0-6--6-3-1------------------------------------------------|
-------6--6-6-6-0-0-0-6--6-3-1------------------------------------------------|
       play verse 4x

------------------------------------------------------------------------------|
------------------------------------------------------------------------------|
------------------------------------------------------------------------------|
-0-5-6-5-6-0-0-0x-0x0x0x0x0x0x0x0x0x-0x-5-6-5-0-3-3-3x-3x-3x-3x-1x-1x-1x-1x---|
-0-5-6-5-6-0-0-0x-0x0x0x0x0x0x0x0x0x-0x-5-6-5-0-3-3-3x-3x-3x-3x-1x-1x-1x-1x---|
-0-5-6-5-6-0-0-0x-0x0x0x0x0x0x0x0x0x-0x-5-6-5-0-3-3-3x-3x-3x-3x-1x-1x-1x-1x---|


------------------------------------------------------------------------------|
------------------------------------------------------------------------------|
------------------------------------------------------------------------------|
-0-5-6-5-6-0-0-0x-0x0x0x0x0x0x0x0x0x-0x-5-6-5-0-3-3--3-3-1-1-1-1-1------------|
-0-5-6-5-6-0-0-0x-0x0x0x0x0x0x0x0x0x-0x-5-6-5-0-3-3--3-3-1-1-1-1-1------------|
-0-5-6-5-6-0-0-0x-0x0x0x0x0x0x0x0x0x-0x-5-6-5-0-3-3--3-3-1-1-1-1-1------------|


-------10-10-10-10-10-10-10-10-----15-15-15-15-15-15-15-15-15-----------------|
-------10-10-10-10-10-10-10-10-----15-15-15-15-15-15-15-15-15-----------------|
-----------------------------------15-15-15-15-15-15-15-15-15-----------------|
------------------------------------------------------------------------------|
------------------------------------------------------------------------------|
------------------------------------------------------------------------------|
           play verse 6x

------------------------------------------------------------------------------|
------------------------------------------------------------------------------|
------------------------------------------------------------------------------|
------------------------------------------------------------------------------|
-0x-0x-0x---0x-0x-0x---0x-0x-0x---0x-0x-0x------------------------------------|
-0x-0x-0x---0x-0x-0x---0x-0x-0x---0x-0x-0x------------------------------------|


-----------------------------------------------------|------------------------|
-----------------------------------------------------|------------------------|
-----------------------------------------------------|------------------------|
-----------------------------------------------------|0x-0x0x0x-0x0x-3-3-5-5--|
-0x-0x-0x--xxxxx--0x-0x-0x---xxxxx--0x-0x-0x---xxxxx-|0x-0x0x0x-0x0x-3-3-5-5--|
-0x-0x-0x--xxxxx--0x-0x-0x---xxxxx--0x-0x-0x---xxxxx-|0x-0x0x0x-0x0x-3-3-5-5--|


-------------------------------|----------------------------------------------|
-------------------------------|----------------------------------------------|
-7-7-7-------------------------|-7-7-7----------------------------------------|
-7-7-7-6--6-6-6-0-0-0-6--6-3-1-|-7-7-7-6--6-6-6-0-0-0-6--6-3------------------|
-5-5-5-6--6-6-6-0-0-0-6--6-3-1-|-5-5-5-6--6-6-6-0-0-0-6--6-3------------------|
-------6--6-6-6-0-0-0-6--6-3-1-|-------6--6-6-6-0-0-0-6--6-3------------------|
       play verse 5x

Artist: Drowning Pool
Song: Tear Away

Transicribed by: Josh Minnish
Email: ibanezjoshm@hotmail.com

Drop C Tuning (CGCFAD)

This song rocks man!! I havent seen good enough tabs so I did it my self!! It
sounds close to me!! I also Finally did the Solo right and Outro!! Enjoy!!


Intro: (Use flanger Effect)
D------------------------------------|
A------------------------------------|
F--8-8-8-8-8/7-----------------------|
C--x-x-x-x-x/x-----------------------|  10x
G--6-6-6-6-6/5--0-0--0--0-0-0--0-0---|
C---------------0-0--0--0-0-0--0-0---|
P.M.            - -  -  - - -  - -


Intro 2: (Heavy Octave Part)
D------------------------------------------------------------------------------|
A------------------------------------------------------------------------------|
F--14-14--14-14--14-14--14-14--12-12-12-12-12-12--11-11--11-11--11-11--11-11---|
C---x--x---x--x---x--x---x--x---x--x--x--x--x--x---x--x---x--x---x--x---x--x---| 2x
G--12-12--12-12--12-12--12-12--10-10-10-10-10-10---9--9---9--9---9--9---9--9---|
C---0--0---0--0---0--0---0--0---0--0--0--0--0--0---0--0---0--0---0--0---0--0---|


Verse:
D-----------------------------------------------|
A-----------------------------------------------|
F--------------------------8-8-8-8-8/7----------|
C--------------------------x-x-x-x-x/x----------|  8 1/2x
G-0--0-0-0--0-0--0-0-0-0---6-6-6-6-6/5----------|
C-0--0-0-0--0-0--0-0-0-0------------------------|
P.M. - - -  - -  - - - -


Fill in Before First Chorus:
D--------------------------|
A--------------------------|
F----8-8-8-8-8-------------|
C----x-x-x-x-x---6-6-6-----|  1x
G----6-6-6-6-6---6-6-6-----|
C----------------6-6-6-----|


Chorus:
D----------------------------------------------|
A----------------------------------------------|
F----------------------------------------------|
C--0-0-0-x-x-0-0-x-x-x--8-8-8-8-8-5-5-5-5-5-5--|  3x then 5x 2nd time
G--0-0-0-5-5-0-0-5-5-5--8-8-8-8-8-5-5-5-5-5-5--|
C--0-0-0-0-0-0-0-0-0-0--8-8-8-8-8-5-5-5-5-5-5--|


Fill Before 2nd Chorus:
D------------------|
A------------------|
F------------------| 1x
C---12/0-----------|
G---12/0-----------|
C------------------|


Bridge:
D-----------------------------------|
A-----------------------------------|
F-----------------------------------|
C--1-0--1-0--1-0----1-0--1-0--1-0---|  1x
G--1-0--1-0--1-0----1-0--1-0--1-0---|
C--1-0--1-0--1-0----1-0--1-0--1-0---|


Solo: Tremelo Pick each Marked part (/) and Use a Wah Pedal
    /   /   /   /        /   /  / /  /  / /
D-------------------------------------------------------------|
A-------------------------------------------13br-13br-13br----|
F--14--12--15--14--14h15p14--10-9-7--5--8-7-------------------|
C-------------------------------------------------------------|  1x
G-------------------------------------------------------------|
C-------------------------------------------------------------|
   /                           /   /  /
D-------------------------------------------------------------|
A-----8--9-8-9-8--9-8/----------------------------------------|
F-12-------------------5-6-5-6-5---3--4b/0--------------------|
C-------------------------------------------------------------|
G-------------------------------------------------------------|
C-------------------------------------------------------------|


Outro: Use Light Distortion (Leave out last 0 on 2nd time)
D-------------------------------------|
A-------------------------------------|
F-----7----7/------3---37-----7------|
C-0-0----0-----0-0---0-----0-0---0----|  2x
G-------------------------------------|
C-------------------------------------|

Hint: If you have a Wah Pedal..Slightly press it down to give
the outro that cool effect!!
Band- Drowning Pool
Song- All Over Me

Tuning: B f# b e g# c#
i know that C.J. usually use drop c tuning, but for this song i think this is
the right tuning


Intro 1: w/effect
|--------------------|
|--------------------|
|-7---8---7---8-/-12-| x1
|-x---x---x---x---x--|
|-5---6---5---6-/-10-|
|--------------------|

Intro 2: x2

Guitar 1: same intro 1

Guitar 2: w/effect
|--------------------|
|--------------------|
|-7---8---7---5------|
|-x---x---x---x------|
|-5---6---5---3------|
|--------------------|

Verse 1:
|--------------------------------------------------------------------------|
|--------------------------------------------------------------------------|
|--------------------------------------------------------------------------| x2
|-0--0-0------------1--1-1---1--1-1---0--0-0------------5---5-5-5--5-5-5---|
|-0--0-0------------1--1-1---1--1-1---0--0-0------------5---5-5-5--5-5-5---|
|-0--0-0------------1--1-1---1--1-1---0--0-0------------5---5-5-5--5-5-5---|
Pm.  .              .  .     .  . .   .  .                  . .    . .

Pre-chorus 1:

Part 1:

Guitar 1:
|---------------------------------------------------------|
|---------------------------------------------------------|
|---------------------------------------------------------|
|-0---0-0-0-0---1---1-1-1-1---0---0-0-0-0---5---5-5-5-5---|
|-0---0-0-0-0---1---1-1-1-1---0---0-0-0-0---5---5-5-5-5---|
|-0---0-0-0-0---1---1-1-1-1---0---0-0-0-0---5---5-5-5-5---|

Part 2:

Guitar 1:
|-----------------------------------------------|
|-----------------------------------------------|
|-----------------------------------------------|
|-0---0-0-0-0---1---1-1-1-1---0---0-0-0-0---5---|
|-0---0-0-0-0---1---1-1-1-1---0---0-0-0-0---5---|
|-0---0-0-0-0---1---1-1-1-1---0---0-0-0-0---5---|

Guitar 2: w/effect and tremolo picking
|-----------------------------------------------|
|-----------------------------------------------|
|-----------------------------------------------|
|-5-----------8-6-----------8-5-----------------|
|-----------------------------------------------|
|-----------------------------------------------|

Chorus 1: w/ wah/wah and tremolo picking
|------------------------|
|------------------------|
|-7---8---5---7---8---12-|
|-x---x---x---x---x---x--|
|-5---6---3---5---6---10-|
|------------------------|

Verse 2: same verse 1

Pre-chorus 2:

Guitar 1:
|---------------------------------------------------------|
|---------------------------------------------------------|
|---------------------------------------------------------| x2
|-0---0-0-0-0---1---1-1-1-1---0---0-0-0-0---5---5-5-5-5---|
|-0---0-0-0-0---1---1-1-1-1---0---0-0-0-0---5---5-5-5-5---|
|-0---0-0-0-0---1---1-1-1-1---0---0-0-0-0---5---5-5-5-5---|

Guitar 2: w/effect and tremolo picking - starts on 2nd of guitar 1
|-----------------------------------------------|
|-----------------------------------------------|
|-----------------------------------------------| x1
|-5-----------8-6-----------8-5-----------3-----|
|-----------------------------------------------|
|-----------------------------------------------|

Chorus 2: w/ wah/wah and tremolo picking
|------------------------|
|------------------------|
|-7---8---5---7---8---12-| x2
|-x---x---x---x---x---x--|
|-5---6---3---5---6---10-|
|------------------------|

Interlude: w/ wah/wah and tremolo picking
|------------------------------------------------|
|--------------------------7---8---5-------------|
|-7---8---5---7---8---12---x---x---x---7---8---5-|
|-x---x---x---x---x---x----x---x---x---x---x---x-|
|-5---6---3---5---6---10---5---6---3---5---6---3-|
|------------------------------------------------|

Bridge:
|-------------------------------------------------------------------------|
|-------------------------------------------------------------------------|
|-------------------------------------------------------------------------|
|-0-0-0-0---0-0-0-0-1-1-1-1---1-1-1-1-0-0-0-0---0-0-0-0-5-5-5-5---5-5-5-5-|
|-0-0-0-0---0-0-0-0-1-1-1-1---1-1-1-1-0-0-0-0---0-0-0-0-5-5-5-5---5-5-5-5-|
|-0-0-0-0---0-0-0-0-1-1-1-1---1-1-1-1-0-0-0-0---0-0-0-0-5-5-5-5---5-5-5-5-|
Pm. . . .   . . . . . . . .   . . . . . . . .   . . . . . . . .   . . . .

|--------------------------------------------------------------------------|
|--------------------------------------------------------------------------|
|-------7---7---7-7-------8---8---8-8-------7---7---7-7-------8---8/-12-12-|
|-0-0-0-x---x-0-x-x-0-0-0-x---x-0-x-x-0-0-0-x---x-0-x-x-0-0-0-x---x--x--x--|
|-0-0-0-5---5-0-5-5-0-0-0-6---6-0-6-6-0-0-0-5---5-0-5-5-0-0-0-6---6/-10-10-|
|-0-0-0-0---0-0-0-0-0-0-0-0---0-0-0-0-0-0-0-0---0-0-0-0-0-0-0-0---0--0--0--|
Pm. . .       .     . . .       .     . . .       .     . . .

Pre-chorus 3: same pre-chorus 2

Chorus 3: same chorus 1

Pre-chorus 4: same pre-chorus 1


Tablature Keys:

h - hammer on
p - pull off
b - bend
r - relese bend
~ - sustain
/ - slide up
 - slide down
v - vibrato
* - trill
x - mute string
pm - palm mute
nh - natural harmonic
ph - pitch harmonic
x\ - pick scrape (direction same as slide)
Band- Drowning Pool
Song- Reminded

Tuning: Drop C (C G C F A D)

Intro
D  ----------------------------------------------------------|
A  ----------------------------------------------------------|
F  ----------------------------------------------------------|
C  ----------------------------------------------------------|  3x
G  ----------------------------------------------------------|
C  ---7-7-75-5-5/8-8-85-5-5/7-75/7-7-7-5/8-8-85-5-5------|

2nd Intro, sort of like Chorus
D  --------------------------------|
A  --------------------------------|
F  --------------------------------|   2x
C  ---7-7-5--8-5--7-5-7-7-5-8-5----|
G  ---7-7-5--8-5--7-5-7-7-5-8-5----|
C  ---7-7-5--8-5--7-5-7-7-5-8-5----|

D  ----------------------|
A  ----------------------|
F  ----------------------|
C  ---97/10-7-/5-7----|   Repeat this until verse starts....
G  ---75/-8--5/-7-5---|
C  ----------------------|

Verse, ALL PALM MUTED EXEPT FOR THE LAST NOTE, ---> (5) 






Like us on Facebook