Bad Dream Mama Intro Tab - Eagles Of Death Metal






Eagles of Death Metal
Bad Dream Mama
Tabbed by callum fuller
This is very rough and there is more notes chucked in there so listen to the track and 
the feel for the tune.  Also chuck in your own variations to make it better.

e:---------------------------------------------------------|
B:---------------------------------------------------------|
G:----------------------------------------------7777-------|
D:-77-7777-77-------------------77-7777-77----------7------|
A:-55-8585-55--88-108-11810-8---55-8585-55--777------------|
E:-------------66-6-6-6-6-6-6---------------555------------|

e:---------------------------------------------------------|
B:---------------------------------------------------------|
G:---------------------------------------------------------|
D:-77-7777-77----------------------------------------------|
A:-55-8585-55--55757555--88108--10101210--1212141214121212-|
E:-------------33333333--66-66--8-8-8-8---1010101010101010-|






Like us on Facebook