Chase The Devil Bass Tab - Eagles Of Death Metal






Artist:Eagles of Death Metal
Song:Chase the Devil
 Death by Sexy
 Tab by Double D

This is one of the best songs from the Death by Sexy Album! This Tab is not 100% corect 
if you want to play the song take this and have fun!!!

Verse
   4x                  2x                 2x
G--------------------------------12-----------------------------------------|
D-------------12108(8)-------------108(8)-----------12108-------------------|
A----10101010------------10101010-----------10101010------------------------|
E---------------------------------------------------------------------------|

1VerseEnd
G---------------------------------------------------------------------------|
D--17--17171717171717171717-15-1717-----------------------------------------|
A-----------------------------------15/10-----------------------------------|
E---------------------------------------------------------------------------|

2VerseEnd
G-------------------------------15------------------------------------------|
D-17--17171717202020201717171717--171517------------------------------------|
A---------------------------------------15/---------------------------------|
E---------------------------------------------------------------------------|

3VerseEnd
G--------------------------------------------15--15--15---------------------|
D-17--1717171717171717-2020202020-1717171717---17--17-----"DrumSolo"--------|
A---------------------------------------------------------------------------|
E---------------------------------------------------------------------------|

4VerseEnd
G-----------|
D-17--------|
A-----------|
E-----------|

Bridge
G---------------------------------------------------------------------------|
D-171717171717-15-1717------------------------------------------------------|
A---------------------15/10-------------------------------------------------|
E---------------------------------------------------------------------------|

             7x               and than
G---------------------------------------------------------------------------|
D-----------------------------------------------15----15--------------------|
A-1010101010---5/101010101010---------1717171717--1717--15------------------|
E---------------------------------------------------------15/---------------|

Order:Verse
      1VerseEnd
      Verse
      2VerseEnd
      Verse
      3VerseEnd
      Drumpeace
      Verse
      4VerseEnd
      LittleBreak
      Bridge
      Verse






Like us on Facebook