Midnight Creeper (ver3) Tab - Eagles Of Death Metal






Intro/Main Riff:

|------------------------------|
|-3---0--0--0--0--0---0--------|
|-0---0--3^-3^-3^-3^--0--------|
|------------------------------|
|------------------------------|
|------------------------3/5^r-|

Verses:
|----------------------|----------------------|
|-3-5--8--8--6--5--3-0-|-3-5--8--8--6--5--3-3-|
|-0-0--0--0--0--0--0-0-|-0-0--0--0--0--0--0-0-|
|----------------------|----------------------|
|----------------------|----------------------|
|----------------------|----------------------|

|----------------------|----------------------|
|-3-5--8--8--6--5--3-0-|-3-0--0--0--0---------|
|-0-0--0--0--0--0--0-0-|-0-0--3--2--0---------|
|----------------------|----------------------|
|----------------------|----------------------|
|----------------------|----------------3/5^r-|

The whole song alternates between the main riff and the verse.
Fun to sing along with.






Like us on Facebook