Stacks O Money Tab - Eagles Of Death Metal






-------------------------------------------------------------------------------
     Stacks O Money - Eagles of Death Metal
-------------------------------------------------------------------------------
Tabbed by:GruelingJSR
Email:GruelingJSR@hotmail.com

Tuning:EODM Open G (DGDGBd)
Twice with extras on second time through
d|-5-6-77-7-77-7-10777-----777----------------------------------------------|
B|-5-6-77-7-87-7-7-787-----777----------------------------------------------|
G|-5-6-77-7-77-7-7-777-----777----------------------------------------------|
D|-5-6-77-7-77-7-7-777-----777----------------------------------------------|
G|-5-6-77-7-77-7-7-777-----777----------------------------------------------|
D|-------------------------777----------------------------------------------|

d|-22-22-2-2222--------------------------------------------------------------|
B|-22-32-2-3232--------------------------------------------------------------|
G|-22-22-2-2222--------------------------------------------------------------|
D|-22-22-2-2222--------------------------------------------------------------|
G|-22-22-2-2222--------------------------------------------------------------|
D|---------------------------------------------------------------------------|

Then Repeat

Enjoy!






Like us on Facebook