Hotel California Intro Tab - Eagles






hotel california by eagles
i'm not so sure about this,but it sounds good on an acoustic.HIDUP ROCK!

e---------------------------------------------------------
b---------3-------------------------2---------------------
g-----4-----4-----------3-------2-----2------------1------
d---4---4-----4-----4---------2---2-----2------2----------
a-2---------------4---4----0-----------------2---2--------
E---------------2-------------------------0----------------

e--------------------------2------------------------------
b----------------------3----------------------------------
g-----------0--------2---2------------1--------------3----
d-------0------0---0--------------2-----2--------4--------
a-----2---2------2--------------2---2-----2----4---4------
E--3--------------------------0-------------2-------------

thats it.i don know about the timing, so thats your problem!
HAHAHAHAHAHAHAHAAH!!






Like us on Facebook