All Out War Tab - Earth Crisis






                           ALL OUT WAR - Earth Crisis


Tabber ~ Terry Sims (Masterofdarknes)
Tezza_01@hotmail.com

Dropped D Tuning

 INTRO:
 e|-------0-----------0-----------0-----------0-----|
 B|-----2---2-------2---3-------3---3-------3---3---|
 G|---3-------3---3-------2---2-------2---2-------2-|
 D|-0-----------0-----------0-----------0-----------|
 A|-------------------------------------------------|
 D|-------------------------------------------------|
     [-Let-Ring------------------------------------]

 e|-------1-----------1-----------1-----------1-----|
 B|-----1---1-------1---1-------1---1-------1---1---|
 G|---2-------2---2-------2---2-------2---2-------2-|
 D|-3-----------3-----------3-----------3-----------|
 A|-------------------------------------------------|
 D|-------------------------------------------------|
     [-Let-Ring------------------------------------]

 e|---------------------------------------------------|
 B|---------------------------------------------------|
 G|---------------------------------------------------|
 D|--2-2-2---2----2-2-2---2----2-2-2---2----2-2-2---2-|
 A|--2-2-2---2----2-2-2---2----2-2-2---2----2-2-2---2-|
 D|--2-2-2---2----2-2-2---2----2-2-2---2----2-2-2---2-|
     [P.M.-]      [P.M.-]      [P.M.-]      [P.M.-]


 VERSE:
 e|--------------------------------|
 B|--------------------------------|
 G|-9--7--5--4--2--------------|
 D|-9--7--5--4--2----2-2-2---2-|
 A|-7--5--3--2--0----2-2-2---2-|
 D|----------------------2-2-2---2-|
                         [P.M.-]

 e|-----------------------0---------------------------------------|
 B|--------------------------3------------------------------------|
 G|---------4/5-----------------2-----------4/5-------------------|
 D|-2--X-X--4/5--2-2--2-------------2--X-X--4/5--2-2--2---5-0---5-|
 A|-2--X-X--2/3--2-2--2-------------2--X-X--2/3--2-2--2---5-0---5-|
 D|-2--X-X-------2-2--2-------------2--X-X-------2-2--2---5-0---5-|
                                                          [P.O.]

 CHORUS:
 e|-----------------------------------------------0--------------|
 B|--------------------------------------------------3-----------|
 G|---------------------4/5-----------------------------2--------|
 D|-2-2--2-2--2-2--2-2--4/5--2-2--2-2--2-2--2-2------------------|
 A|-2-2--2-2--2-2--2-2--2/3--2-2--2-2--2-2--2-2------------------|
 D|-2-2--2-2--2-2--2-2-------2-2--2-2--2-2--2-2------------------|






Like us on Facebook