Firestorm Bass Tab - Earth Crisis






SONG: fIRESORM
ARTIST: EARTH CRSIS
ALBUM: FIRESTORM
------------------------------------------------------------------------------------------------------------------------------------------------

TABED BY JASON

RIFF 1                       >=STRUM
G:--------------------------------------
D:--------------------------------------
A:--------------------------------------
E:-0-0--0-0--0-0--0-0--0>---------------

RIFF 2
G:--------------------------------------
D:--------------------------------------
A:-----------------------3-6------------
E:-0-0-0-0-0-0-0-0-0-0-0-----5----------

RIFF 3
G:--------------------------------------
D:--------------------------------------
A:------3-------5-3-1-------------------
E:--0------0----------------------------

RIFF 4
G:--------------------------------------------------------------
D:--------------------------------------------------------------
A:---------3-------------5-3-6--------------3-------------------
E:-0-0-0-0---0-0-0-0-0-0----------0-0-0-0---0-0-0-0-0-0-1-0-3---






Like us on Facebook