Sunshine Of Your Love Bass Tab - Earth Crisis






Song:  Sunshine of Your Love
Band:  Earth Crisis
Album: The Oath That Keeps Me Free
tabbed by: Andy (pie_tasters@hotmail.com)



Intro 2x (play with drums)
G:------------
D:------------
A:--5-5-3-5---
E:------------

Verse 4x
G:-------------------------
D:-------------------------
A:--5-5-3-5----------------
E:----------/5-4-3-0-1-0---

2x
G:-------------------------
D:-------------------------
A:----------5-4-3-0-1-0----
E:--3-3-1-3----------------

G:-------------------------
D:-------------------------
A:--5-5-3-5----------------
E:----------/5-4-3-0-1-0---

Chorus  3x
G:------------------------
D:------------------------
A:------------------------
E:--5-55------8-88--3-33--


Back to verses.

Our Band plays this song.  Visit our website at
http://members.tripod.com/~SKATISH
thanks






Like us on Facebook