Guest List (ver2) Tab - Eels






Author:"Alexander Surma"  (GER)
Artist:EElS
Title:Guest List


All Tabs I found were just bad. I think I got it very well. Enjoy :)

Intro:
e----------------------------------------------------0---------------------------------------------|
B-----1---------------1--------------1------------------1---1--------------------------------------|
G-------2---0-----2------2---2-----2---2---0-----2--------2----------------------------------------|
D-3-------0-----2----------2-----3-------0-----2---------------------------------------------------|
A--------------------------------------------------------------------------------------------------|
G--------------------------------------------------------------------------------------------------|

Lead-Rest:
e----------------------------------------------------0---------------------------------------------|
B-----1---------------1--------------1------------------1---1--------------------------------------|
G---2---2---0-----2------2---2-----2---2---0-----2--------2----------------------------------------|
D-3-------0-----2----------2-----3-------0-----2---------------------------------------------------|
A--------------------------------------------------------------------------------------------------|
G--------------------------------------------------------------------------------------------------|

ĂŽnscrie-te la newsletter


Like us on Facebook