I Like Birds Bass Tab - Eels






Main Riff
G|----------------------------------|
D|------2---------2-----------------|
A|-----------5----------5--x0-0--2--|
D|--2-----x2----2-----0-------------|

 End Riffs
G|----------------------------------|
D|------2--------------Rest---------|
A|-----------5--------------Here----|
D|--2-----x2----2-------------------|

ĂŽnscrie-te la newsletter


Like us on Facebook