Love Of The Loveless Tab - Eels






Bassline (repeat throughout song)

e|-----------------|
B|-----------------|
G|-----------------|
D|-----------------|
A|-----3-----------|
E|--3--------3--1--|

Chords (repeat throughout song)
     C     F
e|---0-----x-------|
B|---1-----1-------|
G|---0-----2-------|
D|---2-----3-------|
A|---3-----3-------|
E|---x-----x-------|

Chorus

e|-------------------------|
B|-------------------------|
G|----------9--------------|
D|------10-----10-----10---|
A|--10-------------8-------|
E|-------------------------|

I couldn't find the chords of the bridge

ĂŽnscrie-te la newsletter


Like us on Facebook