Ps You Rock My World Tab - Eels






P.S You rock my world - Eels

I couldnt believe there wasnt a tab for this, so here it goes- It sounds right to me. 
to lord.luke@jamoria.co.uk

Tuning: Standard (capo 1st)

Intro                   Fig. 1
  x4 then                x3 then
e|-----------------|      |---------------|--0-0-0-0-0-0-0-0--|
B|-----------------|      |---------------|--2-2-2-2-2-2-2-2--|
G|-0-0-0-0-2--2-2--|      |0-0-0-0-2--2-2-|--2-2-2-2-2-2-2-2--|
D|-0-0-0-0-0--0-0--|      |0-0-0-0-0--0-0-|--2-2-2-2-2-2-2-2--|
A|-2-2-2-2-0--0-0--|      |2-2-2-2-0--0-0-|--0-0-0-0-0-0-0-0--|
E|-3-3-3-3-2--2-2--|      |3-3-3-3-2--2-2-|-------------------|


Fig. 2
    x3 ------------(muted)----------------------------|    x3
e|---------------|--0-0-0-0-0-0-0-0-2-2-2-2-2-2-2-2---|
B|---------------|--2-2-2-2-2-2-2-2-3-3-3-3-3-3-3-3---|
G|0-0-0-0-2--2-2-|--2-2-2-2-2-2-2-2-2-2-2-2-2-2-2-2---|
D|0-0-0-0-0--0-0-|--2-2-2-2-2-2-2-2-0-0-0-0-0-0-0-0---|
A|2-2-2-2-0--0-0-|--0-0-0-0-0-0-0-0-------------------|
E|3-3-3-3-2--2-2-|------------------------------------|


Fig. 3

e|-------------------------------|
B|-------------------------------|
G|0-0-0-0-2--2-2--0-0-0-0-0--0-0-|
D|0-0-0-0-0--0-0--0-0-0-0-0--0-0-|
A|2-2-2-2-0--0-0--2-2-2-2-0--0-0-|
E|3-3-3-3-2--2-2--0-0-0-0-0--0-0-| x3

ĂŽnscrie-te la newsletter


Like us on Facebook