Rock Hard Times Chords - Eels






Listen to the song to get the timing right

CAPO III:

Intro:

e||--3-----3----||
B||----3-----3--||
G||-------------|| repeat until E starts to sing
D||-------------||
A||-------------||
E||-------------||

G           G/F#              Em7          D
They told me that I couldnt come back here again
Cadd9       Cadd9/B      Asus4   D
Took me for some kind of fool
G           G/F#              Em7          D
Said I was doing things that never should be done
Cadd9       Cadd9/B      Asus4   D
But I dont care about their rules

Em                      C
As if I cared bout the little minds
G                          G  G/F# Em7
In the little heads of the herd
Em                  C
Theres nothing you could dream
        G
Would be more absurd

G           G/F#              Em7          D
And everybody knows these are rock hard times
Cadd9       Cadd9/B     
I gotta make it through
Asus4      D               G
These are rock hard times

Em                              C
I dont know what it is theyre trying to do to me
G                      G  G/F#  Em/7
Make me into some sick joke
Em                          C
But no ones laughing, and least of all not me
C                          G
Its hard to laugh as you choke

Solo:

e||-------------------------------------------------------------------------------------||
B||-----------------------------------------------------------------7--5-5-3-3----------||
G||--4h6--6-4-4-22-2-1---4h6--6-4-4-22-6-4---4h6--6-4-4-22-2-4-6-------------6-4-2-1-||
D||-------------------------------------------------------------------------------------||
A||-------------------------------------------------------------------------------------||
E||-------------------------------------------------------------------------------------||

Hollywood lies piled up to the sky
Floating your way soon
Hope you like the rotten stench of doom

And everybody knows these are rock hard times
I gotta make it through
These are rock hard times

I dont know what it is they think Im gonna try
They dont know what they need to fear
The surest sign that the end is coming soon
Is right there in the bathroom mirror

And everybody knows these are rock hard times
I gotta make it through
These are rock hard times
These are rock hard times

ĂŽnscrie-te la newsletter


Like us on Facebook