Susans House Bass Tab - Eels






G------------------------------]
D-------0-4-2------------------]
A-2-4-----------------2--------]
E--------------0-0-0-----0-----]


G------------------------------]
D-------0-4-2------------------]
A-2-4-----------------2--------]
E--------------0-0-0-----------]

Switch between the two each time

ĂŽnscrie-te la newsletter


Like us on Facebook