What Is This Note Bass Tab - Eels






Song: What Is This Note?
Artist: Eels
Difficulty: Medium
Tabbed: MastaBassa (Thats me)
Tuning: Standard (G-D-A-E)

This song isnt really that hard and it sounds great. Have fun and good luck!

Intro/Outro:
G|-------------|
D|-------------|
A|-----3-------|
E|-1-------3---|

Verse 1:
G|-----------------------------|
D|-----------------------------|
A|-5-5-5555--038-8-8888-5-5-|
E|----------3------------------|

G|-------------------------------|
D|-------------------------------|
A|-10-10-101010-9-8-5-55-5---0-3-|
E|-------------------------3-----|

Verse 2:
G|---------------|
D|---------------|
A|-3-3-5-3-5-3-5-|
E|---------------|

Verse 3:
G|---------------|
D|---------------|
A|-7-7-9-7-9-7-9-|
E|---------------|

Order
Intro(x1)
Verse 1(x2)
Verse 2(x4)
Verse 1(x2)
Verse 2(x4)
Verse 3(x4)
Verse 1(X2)
Verse 2(x4)
Verse 3(x4)
Outro(x1)

After Outro theres a little guitar solo part and then the song ends

Enjoy!

Any Questions, Comments, Corrections, Threats please E-Mail me at
MastaBassa72090@gmail.com

ĂŽnscrie-te la newsletter


Like us on Facebook