World Of s**t Tab - Eels






World Of s**t by The Eels
Tabbed by samuel (old testament or the new one, who know's)

This is my first serious tab so take it easy if you bother to rate

Great song built around a chord progression that goes

|G    |Cm6 Cm |G    |Cm6 Cm |G    |Cm6 Cm |Cm6 Cm |F  Cm |(Repeat)


G                      Cm6   Cm
  In This World Of s**t,

G                Cm6   Cm
  Baby You Are It,

G                     Cm6          Cm
  A Little Light That Shines All Over,

  Cm6       Cm
  Must Take Over And,

  F       Cm         G
  See Us Through The Night.


If You must know it specifically goes

e|--7----5--3--|
B|--8----4-----|
G|--7----5-----|
D|--9----5-----|
A|-10----------|
E|-------------|

And over it a piano plays

e|-----19-17-15-------17-|
B|--15----------15-15----|
G|-----------------------|
D|-----------------------|
A|-----------------------|
E|-----------------------|

And Then


e|--7--5--3--5-----5--3--|
B|--8--4-----4-----6--4--|
G|--7--5-----5-----5--5--|
D|--9--------------------|
A|-10--------------------|
E|-----------------------|


e|-----19-17-15----17-18-17-15-17-18-17-15----17-18-17-15----|
B|--15----------15-------------------------15-------------15-|
G|-----------------------------------------------------------|
D|-----------------------------------------------------------|
A|-----------------------------------------------------------|
E|-----------------------------------------------------------|


thats the meat and potatoes of it so please rate and of course enjoy!

ĂŽnscrie-te la newsletter


Like us on Facebook