Chosen Few (ver2) Tab - Electric Wizard






song by ELECTRIC WIZARD
from the album LET US PREY
tabbed by Waltteri Savolainen - corrections: mail to
waltteri_savolainenREPLACETHISWITHAThotmail.com
|--------------------------------------------------------------------|
|--------------------------------------------------------------------|
|--------------------------------------------------------------------|
|--------------------------------------------------------------------|
|---------------------------4-3-4------------------------------------|
|-5--4----4--2--4-4-2------------------------------------------------|

|--------------------------------------------------------------------|
|--------------------------------------------------------------------|
|--------------------------------------------------------------------|
|--------------------------6-5-6-------------------------------------|
|-7--6----6--4--6-6-4------------------------------------------------|
|--------------------------------------------------------------------|


|--------------------------------------------------------------------|
|--------------------------------------------------------------------|
|--------------------------------------------------------------------|
|-------3----------3-----------3--------3--6b------------------------|
|--------------------------------------------------------------------|
|-1-------1--4-------4--1-------1--2---------------------------------|

ĂŽnscrie-te la newsletter


Join the ranks ! LIKE us on Facebook