Eko Eko Azarak Tab - Electric Wizard






Eko Eko Azarak
Electric Wizard
We Live
Tuning: C Standard (C F A# D# G C)
this is both parts. for 2 guitars and bass, fuzz, distortion, charred weed, melodic 
speaking in tongues. do it all with crushing noise and feedback


1. Invocation
||---------------------||
||---------------------||
||-----9-----9--9-7-9--||
||--2--9--2--9--9-7-9--||
||--2--7--2--7--7-5-7--|| x4
||--0-----0------------|| x4 with lyrics:
Eko eko azarak
eko eko zomelak

|----------------------------------------------------------------------|
|------------------------------------10b11-b11-b11rs9------------------|
|------------------------9-9----9-12------------------12-9-------------|
|------5---5-7-9-12-9-12-----12---------------etc. with this scale...--|
|----7---7-------------------------------------------------------------|
|--0-------------------------------------------------------------------|

Black pyramids under Martian sun
Priests chant ancient necropsalms
Summon winds across the desert sandsriff x4
Sun sets on this dying land...

    Lamac lamac Bachalyas
    Cabahagy sabalyosriff x4

|---------------|
|---------------|
|--7----10---9--|
|--7----10---9--|
|--5-----8---7--| bridge
|---------------|

Black ships tear through Martian skies
Earthbound sent by sorcerous flight
13 years through black depths of spaceriff x4
Ancient race seed this cursed place

    Lagoz atha cabyolas
    Samahac atha famolasriff x4

|-----------------------------|
|-----------------------------|
|--7-----10---9----10--7---10-|
|--7-----10---9----10--7---10-|
|--5------8---7-----8--5----8-|
|-----------------------------|


2. Ritual
|-----------------------------|
|-----------------------------|
|--5--5-7-5-7-12--121110-9----|
|--5--5-7-5-7-12--121110-9----|
|--7--7-5-7-5-10--10-9-8-7----| x2
|-----------------------------| x2 with:
Come my fanatics, come... to the sabbath
Come my fanatics, come... to the sabbath
and x4 with solos

Eko eko azarak
eko eko zomelak x4 Intro Riff A

||----------------------||
||----------------------||
||--7-----10---9----10--||
||--7-----10---9----10--||
||--5------8---7-----8--|| outro x approx. 24
||----------------------|| with solos/improv.

ĂŽnscrie-te la newsletter


Join the ranks ! LIKE us on Facebook