Solarian 13 Tab - Electric Wizard






song by ELECTRIC WIZARD (UK)
from the album COME MY FANATICS (1997)
tabbed by Waltteri Savolainen
corrections: Waltteri_SavolainenAThotmailDOTcom

This song has only two riffs in addition to the schizoid jamming. An instrumental song, 
about 8 minutes, pretty trippy.


This first one is played clean in the beginning but it turns into a big distorted mess 
a while.
|----------------------------------------------------------------------|
|----------------------------------------------------------------------|
|----------------------------------------------------------------------|
|----------------------------------------------------------------------|
|---------7--5--7-----------7--5--7-----------7--5--7------------------|
|-0---0--------------0---0--------------0---0-------------6b--5-6b--5--|


|----------------------------------------------------------------------------------------|
|----------------------------------------------------------------------------------------|
|----------------------------------------------------------------------------------------|
|-----------------5----------------------5---7b-------------------5b---------------------|
|-7----7--5/7------7b--7----7--5/7-------------7----7--5/7-------7-----------------------|
|------------------------------------------------------------------------------5b----3b--|

ĂŽnscrie-te la newsletter


Join the ranks ! LIKE us on Facebook