Nuestro Descanso Tab - Elfonia






Artista: Elfonia
Titulo: Nuestro Descanso
Album: Elfonia
Subido por: something_is_rotten_@hotmail.com


Intro

e|---------14-10-12-----------------|------14-10-12------10-10-12------|
B|------12----------12---12-12-10---|---12----------12------------10---|
G|--------------------------------9-|----------------------------------|
D|----------------------------------|----------------------------------|
A|--------------------------0-------|------------------------0---------|
E|--0-------------------------------|-0--------------------------------|

e|---------------|--------------|--------10---|--10-10-12-----|
B|--10-10-12-----|--8-8-10------|------8------|-----------10--|
G|-----------12--|---------7----|--7-7--------|---------------|
D|---------------|--------------|-------------|------0--------|
A|---------------|--------------|----6--------|---------------|
E|------8--------|----7---------|-------------|---------------|

Verso

e|---------0---------------0--------|
B|----12--------0-----12--------0---|
G|-----------12--------------12-----|
D|----------------------------------|
A|-------0---------------0----------|
E|--0---------------0---------------|
x10

e|--0---|
B|--1---|
G|--2---|
D|--3---|
A|--0---|
E|--0---|

e|---------0---------------0--------|
B|----12--------0-----12--------0---|
G|-----------12--------------12-----|
D|----------------------------------|
A|-------0---------------0----------|
E|--0---------------0---------------|
x9

e|------12--------12---|
B|---------12----------|
G|---------------------|
D|---------------------|
A|---------------------|
E|--0---------0--------|

Coro

e|----------------|---------------|---------------|---------|
B|----------------|---------------|---------------|-------7-|
G|--------9-------|-------9-------|-------9-------|-----5---|
D|------9---9-----|-----9---9-----|-----9---9-----|---5-----|
A|----9-------9---|---9-------9---|---9-------9---|-0-------|
E|--7-----------7-|-8-----------8-|-6-----------6-|---------|
x2

Verso

e|---------0---------------0--------|
B|----12--------0-----12--------0---|
G|-----------12--------------12-----|
D|----------------------------------|
A|-------0---------------0----------|
E|--0---------------0---------------|
x9

e|------12--------12---|
B|---------12----------|
G|---------------------|
D|---------------------|
A|---------------------|
E|--0---------0--------|

Coro

e|----------------|---------------|---------------|---------|
B|----------------|---------------|---------------|-------7-|
G|--------9-------|-------9-------|-------9-------|-----5---|
D|------9---9-----|-----9---9-----|-----9---9-----|---5-----|
A|----9-------9---|---9-------9---|---9-------9---|-0-------|
E|--7-----------7-|-8-----------8-|-6-----------6-|---------|
x2

Final

e|--5---|
B|--5---|
G|--4---|
D|--3---|
A|--3---|
E|--3---|

Letra:

Escucha, el aire
entona un triste himno.
Brazos de piedra adormecidos
cuidan de nuestro descanso.
No hay caminos que lleguen aqu.
Los sueos son distintos
estando tan lejos,
no consuelan igual,
no endulzan la mente con su paz.

Vuelve a m, tormento ideal.
Vuelve a m, no puedo ms.

En cada instante
de agona
se apodera de mis deseos;
en sus manos me arrulla.

Vuelve a m, tormento ideal.
Vuelve a m, no puedo ms.

***********************************

Bueno pues aqu la primera tablatura que hago de una buena banda mexicana, espero les 
y les ayude.
Si desean ahcer alguna correcin o comentario no duden en mandarme un mail, todos sern 
recibidos.

http://www.elfonia.com/

ĂŽnscrie-te la newsletter


Like us on Facebook