Peter Gunn Bass Tab - Emerson Lake and Palmer






Complete song of peter gunn


|-----------------|
|-----------------|     repeat a good number of times
|-------------0---|
|-0-0-2-0-3-0---3-|

|-----------------|
|-----------------|     repeat 2
|-------------0---|
|-0-0-2-0-3-0---3-|

|-----------------|     
|-------------0---|     repeat 2
|-0-0-2-0-3-0---3-|
|-----------------|     

|-------------0---|     
|-0-0-2-0-3-0---3-|     repeat 2
|-----------------|  
|-----------------| 


|-----------------|
|-----------------|     repeat a good number of times
|-------------0---|
|-0-0-2-0-3-0---3-|

|-----------------|
|-----------------|     repeat 2
|-------------0---|
|-0-0-2-0-3-0---3-|

|-----------------|     
|-------------0---|     repeat 2
|-0-0-2-0-3-0---3-|
|-----------------|     

|-------------0---|     
|-0-0-2-0-3-0---3-|     repeat 2
|-----------------|  
|-----------------| 


for more information e-mail me at pommes__de__route@hotmail.com

ĂŽnscrie-te la newsletter


Like us on Facebook