The Sage Solo Tab - Emerson Lake and Palmer






 EMERSON,LAKE and PALMER
 PICTURES AT AN EXHIBITION
 THE SAGE

 GUITAR SOLO :

|---------------------------------------------------------|
|--12-----9-10h12--10p9----12-13-10-12--------------------|
|--11--11----------9----9--11-12-9--11--------------------|
|---------------------------------------------------------|
|---------------------------------------------------------|
|--11----------------------11-12-9--11--------------------|


|--------------------------------------------------------------------------------------------------------|
|------8-----8-----8--------9--------10-----------11-----------12-----------12-------12-----------12-----|
|----7-----7-----7---8----8---9----9----10-----10----11-----11----12-----11-------11----12-----11----12--|
|--------------------------------------------------------------------------------------------------------|
|--------------------------------------------------------------------------------------------------------|
|--7----7------7-----8--8-----9--9------10--10-------11--11-------12--11-------11-------12--11-------12--|


|---------------------------------------------------------|
|--12-----9-10h12--10p9----12-13-10-12--------------------|
|--11--11----------9----9--11-12-9--11--------------------|
|---------------------------------------------------------|
|---------------------------------------------------------|
|--11----------------------11-12-9--11--------------------|


|--------------------------------------------------------------|
|------5-----5-----5-----0-----0-----0-----3-----3-----3--0----|
|----4-----4-----4-----5-----5-----5-----2-----2-----2----4----|
|--------------------------------------------------------------|
|--------------------0-----0-----0------------------------4----|
|--4-----4-----4-----------------------2-----2-----2-----------|


|--------------------------------------------------------------|
|------5-----5-----5-----0-----0-----0-----3-----3-----3--0----|
|----4-----4-----4-----5-----5-----5-----2-----2-----2----4----|
|--------------------------------------------------------------|
|--------------------0-----0-----0------------------------4----|
|--4-----4-----4-----------------------2-----2-----2-----------|

|-------------------------------0--------------------|
|--9--12--9--5--6---4/5--5---------------------------|
|--9--11--9--4--6--------2----1----------------------|
|----------------------------------------------------|
|-------------------2----0--0------------------------|
|--9--11--9--4--5------------------------------------|


|--12------11------9-------------------|
|-----9-------9----7-9-7--7------------|
|--11---------------------6--9-8-------|
|----------11--------------------------|
|------------------7-------------------|
|-------9-------7---------6------------|


|--12------11------9-------------------|
|-----9-------9----7-9-7--7------------|
|--11---------------------6--9-8-------|
|----------11--------------------------|
|------------------7-------------------|
|-------9-------7---------6------------|


|---------------------------------------------------------|
|--12-----9-10h12--10p9----12-13-10-12--------------------|
|--11--11----------9----9--11-12-9--11--------------------|
|---------------------------------------------------------|
|---------------------------------------------------------|
|--11----------------------11-12-9--11--------------------|


|--------------------------------------------------------------|
|------5-----5-----5-----0-----0-----0-----3-----3-----3--0----|
|----4-----4-----4-----5-----5-----5-----2-----2-----2----4----|
|--------------------------------------------------------------|
|--------------------0-----0-----0------------------------4----|
|--4-----4-----4-----------------------2-----2-----2-----------|


|--------------------------------------------------------------|
|------5-----5-----5-----0-----0-----0-----3-----3-----3--0----|
|----4-----4-----4-----5-----5-----5-----2-----2-----2----4----|
|--------------------------------------------------------------|
|--------------------0-----0-----0------------------------4----|
|--4-----4-----4-----------------------2-----2-----2-----------|


|---------------------------------------------|
|--9--12--9--5--6---4--4--4-------------------|
|--9--11--9--4--6------6--5-------------------|
|---------------------------------------------|
|---------------------------------------------|
|--9--11--9--4--5------5--4-------------------|

|----------8-7-9/12-0-----------------0----------------------------|
|------8-7----------0-----------------0-12-------10-12-13-10-12----|
|--8-9-----------------------------0----11-11-12-------------------|
|------------------------------2-4---------------------------------|
|----------------------------2-------------------------------------|
|-------------------0--0-2-3----------0-11-------------------------|


|---------0---------------------------------------------------|
|--12--12---12--------12-10--10------10-8--8------8-----7-----|
|--11--10---10-----11---------8----9-------9----9-----8-------|
|-------------------------------------------------------------|
|-------------------------------------------------------------|
|--11--10---10--11------------8--9---------7--7-----7---------|

|--3--------------------------------------------|
|-----------------------------------------------|
|----4-5-2-4---2--------------------------------|
|------------5---4-5-2-4------------------------|
|------------------------2----------------------|
|-----------------------------------------------|






Like us on Facebook