Little Dreamer Tab - Ensiferum






Band: Ensiferum 
Album: Ensiferum 
Song: Little Dreamer 
Tabbed by: Maarten Wuyts 
Tab Date: 06-06-2006 
Email: de_wuyts_@hotmail.com

 
Standard E Tuning 
 
riff A 
|-------------------------------------------------------------| 
|-------------------------------------------------------------| 
|-------------------------------------------------------------| 
|-----------------7----------7--------------------------------| 
|-7---7-10-9----9---10-9-7-9----------------------------------| 
|---7--------10-----------------------------------------------| 
 
|-------------------------------------------------------------| 
|-------------------------------------------------------------| 
|-------------------------------------------------------------| 
|-----------------7-------------------------------------------| 
|-7---7-10-9----9---10-9-7-9----------------------------------| 
|---7--------10---------------10------------------------------| 
(2x) 
 
riff B Chords (0:24)  
|-------------------------------------------------------------| 
|-------------------------------------------------------------| 
|-------------------------------------------------------------| 
|-9---4---5---7---------------9---4---5---7-------------------| 
|-7---2---3---5---------------7---2---3---5-------------------| 
|-------------------------------------------------------------| 
(2x) 
 
riff B Lead 
|---------3-7-------3p2---------------------------------------| 
|-/5-3h5------7-7-------5-3--5-3-2----------------------------| 
|----------------------------------4--------------------------| 
|-------------------------------------------------------------| 
|-------------------------------------------------------------| 
|-------------------------------------------------------------| 
 
|--------3-7------3p2-----------------------------------------| 
|-/5-3h5-----7-7------5-3-/5-5--------------------------------| 
|-------------------------------------------------------------| 
|-------------------------------------------------------------| 
|-------------------------------------------------------------| 
|-------------------------------------------------------------| 
(2x) 
riff A 
|-------------------------------------------------------------| 
|-------------------------------------------------------------| 
|-------------------------------------------------------------| 
|-----------------7----------7--------------------------------| 
|-7---7-10-9----9---10-9-7-9----------------------------------| 
|---7--------10-----------------------------------------------| 
 
|-------------------------------------------------------------| 
|-------------------------------------------------------------| 
|-------------------------------------------------------------| 
|-----------------7-------------------------------------------| 
|-7---7-10-9----9---10-9-7-9----------------------------------| 
|---7--------10--------------10-------------------------------| 
(2x) 
riff C (1:17) 
|-------------------------------------------------------------| 
|-------------------------------------------------------------| 
|-------------4-----4-------4---------------------------------| 
|-2222-44-4-5---4-----5-4-5---5-4-5---------------------------| 
|-------------------------------------------------------------| 
|-------------------------------------------------------------| 
 
|-------------------------------------------------------------| 
|-------------------------------------------------------------| 
|-------------4-----4--------4-2------------------------------| 
|-2222-44-4-5---4-----5-4-5------5-4---2----------------------| 
|------------------------------------5------------------------| 
|-------------------------------------------------------------| 
(4x) 
riff D (2:00) 
|-------------------------------------------------------------| 
|-------------------------------------------------------------| 
|--------------2-2--------------------------------------------| 
|-2-2----------2-2--------------------------------------------| 
|-2-2--5-5--4--0-0--------------------------------------------| 
|-0-0--3-3--2-------------------------------------------------| 
(4x) 
riff E 
|-------------------------------------------------------------| 
|-------------------------------------------------------------| 
|--------2--------------------4-2-----------------------------| 
|-2-4-5-----5-4--------2-4-5------5-4-2-----------------------| 
|----------------5--------------------------------------------| 
|-------------------------------------------------------------| 
(2x) 
riff F 
|-------------------------------------------------------------| 
|-------------------------------------------------------------| 
|------------------------4-2------2---------------------------| 
|---------------------2------5--4---5-4-----------------------| 
|-------------------------------------------------------------| 
|-0000-33-55-3-2-0--------------------------------------------| 
(4x) 
riff G (acoustic) (2:51) 
|-------------------------------------------------------------| 
|-------------------------------------------------------------| 
|-------------------------------------------------------------| 
|-2--2-2-2--2---7--7-7-7--7------------------2----------------| 
|-2--2-2-2--2---5--5-5-5--5--5--5-5--4--4-4--2----------------| 
|-0--0-0-0--0----------------3--3-3--2--2-2--0----------------| 
(2x) 
 
|-------------------------------------------------------------| 
|-------------------------------------------------------------| 
|---------------------------------------------2-2-------------| 
|-4--4-4-4--4---7--7-7-7--7----------------4--2-2-------------| 
|-2--2-2-2--2---5--5-5-5--5---5--5-5-5--5--2--0-0-------------| 
|-----------------------------3--3-3-3--3---------------------| 
(1x) 
 
|-------------------------------------------------------------| 
|-------------------------------------------------------------| 
|-------------------------------------------------------------| 
|-2--2-2-2--2---7--7-7-7--7------------------2----------------| 
|-2--2-2-2--2---5--5-5-5--5--5--5-5--4--4-4--2----------------| 
|-0--0-0-0--0----------------3--3-3--2--2-2--0----------------| 
(1x) 
riff C  
|-------------------------------------------------------------| 
|-------------------------------------------------------------| 
|-------------4-----4-------4---------------------------------| 
|-2222-44-4-5---4-----5-4-5---5-4-5---------------------------| 
|-------------------------------------------------------------| 
|-------------------------------------------------------------| 
 
|-------------------------------------------------------------| 
|-------------------------------------------------------------| 
|-------------4-----4--------4-2------------------------------| 
|-2222-44-4-5---4-----5-4-5------5-4---2----------------------| 
|------------------------------------5------------------------| 
|-------------------------------------------------------------| 
(1x) 
riff F 
|-------------------------------------------------------------| 
|-------------------------------------------------------------| 
|------------------------4-2------2---------------------------| 
|---------------------2------5--4---5-4-----------------------| 
|-------------------------------------------------------------| 
|-0000-33-55-3-2-0--------------------------------------------| 
(4x) 
riff H solo (4:00) 
|-------7-5---------------7-5----------------7-5--------------7-5----| 
|-5-5-5-----8-7-8---5-5-5-----8-7-8---5-5-5------8-7-8--5-5-5-----8~-| 
|--------------------------------------------------------------------| 
|--------------------------------------------------------------------| 
|--------------------------------------------------------------------| 
|--------------------------------------------------------------------| 
(4x) 
riff B Chords  
|-------------------------------------------------------------| 
|-------------------------------------------------------------| 
|-------------------------------------------------------------| 
|-9---4---5---7---------------9---4---5---7-------------------| 
|-7---2---3---5---------------7---2---3---5-------------------| 
|-------------------------------------------------------------| 
(2x) 
 
riff B Lead 
|---------3-7-------3p2---------------------------------------| 
|-/5-3h5------7-7-------5-3--5-3-2----------------------------| 
|----------------------------------4--------------------------| 
|-------------------------------------------------------------| 
|-------------------------------------------------------------| 
|-------------------------------------------------------------| 
 
|--------3-7------3p2-----------------------------------------| 
|-/5-3h5-----7-7------5-3-/5-5--------------------------------| 
|-------------------------------------------------------------| 
|-------------------------------------------------------------| 
|-------------------------------------------------------------| 
|-------------------------------------------------------------| 
(2x) 
riff I End riff (Acoustic) 
|-----------------3-2----------------------3-2----------------| 
|-5--5-5--3--3-3------5-5---5--5-5--3--3-3-----5-5------------| 
|-------------------------------------------------------------| 
|-------------------------------------------------------------| 
|-------------------------------------------------------------| 
|-------------------------------------------------------------| 
 
|----------------7--7-7--5--5-5------------------3-2----------| 
|-5--5-5--3--3-3------------------5--5-5--3--3-3-----5--------| 
|-------------------------------------------------------------| 
|-------------------------------------------------------------| 
|-------------------------------------------------------------| 
|-------------------------------------------------------------|

ĂŽnscrie-te la newsletter


Join the ranks ! LIKE us on Facebook