Treacherous Gods Bass Tab - Ensiferum






 Treacherous Gods (Bass)

Fun Song PM me for corrections 
                                      
G||------|------|------|------|----|----|----|----|
D||------|------|------|------|----|----|----|----|
A||------|------|------|------|----|----|----|----|
E||------|------|------|------|----|----|----|----|


                                                            
|-----------------------------|----------------------------|
|*----------------------------|----------------------------|
|*--3--3--3----3------3----3--|--3--3--3----3------3----3--|
|-----------------------------|----------------------------|


                                                            
----------------------------|-----------------------------||
----------------------------|----------------------------*||
--3--3--3----3------3----3--|--1--1--1----1------1----1--*||
----------------------------|-----------------------------||


                                                          
----------------------------|----------------------------|
----------------------------|----------------------------|
--1--1--1----1------1----1--|--3--3--3----3------3----3--|
----------------------------|----------------------------|


                                                          
----------------------------|----------------------------|
----------------------------|----------------------------|
--8--8--8----8------8----8--|--6--6--6----6------6----6--|
----------------------------|----------------------------|


                                                          
----------------------------|----------------------------|
----------------------------|----------------------------|
--5--5--5----5------5----1--|--3--3--3----3------3----3--|
----------------------------|----------------------------|


                                                          
----------------------------|----------------------------|
----------------------------|----------------------------|
--8--8--8----8------8----8--|--6--6--6----6------6----6--|
----------------------------|----------------------------|


                                                                    
-----------------------------|------------------|------------------|
-----------------------------|------------------|------------------|
--5--5--5--1--1--1--3--------|------------------|------------------|
-----------------------------|------------------|------------------|


                                                                              
--------------------------------------|--------------------------------------|
--------------------------------------|--------------------------------------|
--3--3--3--3--3--3--3--3--3--3--3--3--|--------------------------------------|
--------------------------------------|--1--1--1--1--1--1--1--1--1--1--1--1--|


                                                                              
--------------------------------------|--------------------------------------|
--------------------------------------|--------------------------------------|
--------------------------------------|--1--1--1--1--1--1--1--1--1--1--1--1--|
--4--4--4--4--4--4--4--4--4--4--4--4--|--------------------------------------|


                                                                              
--------------------------------------|--------------------------------------|
--------------------------------------|--------------------------------------|
--3--3--3--3--3--3--3--3--3--3--3--3--|--------------------------------------|
--------------------------------------|--1--1--1--1--1--1--3--3--3--3--3--3--|


                                                                              
--------------------------------------|--------------------------------------|
--------------------------------------|--------------------------------------|
--------------------------------------|--1--1--1--1--1--1--1--1--1--1--1--1--|
--4--4--4--4--4--4--4--4--4--4--4--4--|--------------------------------------|


                                                                              
--------------------------------------|--------------------------------------|
--------------------------------------|--------------------------------------|
--3--3--3--3--3--3--3--3--3--3--3--3--|--------------------------------------|
--------------------------------------|--1--1--1--1--1--1--1--1--1--1--1--1--|


                                                                              
--------------------------------------|--------------------------------------|
--------------------------------------|--------------------------------------|
--------------------------------------|--------------------------------------|
--4--4--4--4--4--4--4--4--4--4--4--4--|--3--3--3--3--3--3--3--3--3--3--3--3--|


                                                                              
--------------------------------------|--------------------------------------|
--------------------------------------|--------------------------------------|
--3--3--3--3--3--3--3--3--3--3--3--3--|--------------------------------------|
--------------------------------------|--1--1--1--1--1--1--1--1--1--1--1--1--|


                                                                 
--------------------------------------|-------------------------|
--------------------------------------|-------------------------|
--------------------------------------|--1-------------3--------|
--4--4--4--4--4--4--4--4--4--4--4--4--|---------3---------------|


                                                              
|-------------------------------|---------------------------||
|*------------------------------|--------------------------*||
|*----------------3----3--3--3--|--1----1--1--1--3----3----*||
|---1----1--1--1----------------|---------------------------||


                                                          
--------------------------|------------------------------|
--------------------------|------------------------------|
--1----1--1--1--3----3----|----------------3----3--3--3--|
--------------------------|--1----1--1--1----------------|


                                                     
-------------------------|--------------------------|
-------------------------|--------------------------|
--1----1--1--1--3--------|----------------3----3----|
-------------------------|--1----1--1--1------------|


                                                                       
-----------------------------||---------------------------------------|
-----------------------------||*-----------------5--3--3--3--3--------|
--1----1--1--1--3------------||*--3--3--3--3--6-----------------6--5--|
-----------------------------||---------------------------------------|


                               3x                               
-------------------------------||------------------------------|
------------------------------*||------------------------------|
--6--6--6--6--5--3------------*||--6--6--6--6--5--3------------|
--------------------6----6-----||--------------------6----6----|


                                                                          
------------------------------------|------------------------------------|
------------------------------------|------------------------------------|
--3----3--3--3--3--3----3--3--3--3--|------------------------------------|
------------------------------------|--3----3--3--3--3--3----3--3--3--3--|


                                                                          
------------------------------------|------------------------------------|
------------------------------------|------------------------------------|
--1----1--1--1--1--1----1--1--1--1--|------------------------------------|
------------------------------------|--1----1--1--1--1--1----1--1--1--1--|


                                                                          
------------------------------------|------------------------------------|
------------------------------------|------------------------------------|
------------------------------------|------------------------------------|
--4----4--4--4--4--4----4--4--4--4--|--6----6--6--6--6--6----6--6--6--6--|


                                                                          
------------------------------------|------------------------------------|
------------------------------------|------------------------------------|
--3----3--3--3--3--3----3--3--3--3--|--3----3--3--3--3--3----3-----------|
------------------------------------|---------------------------3--3--3--|


                                                                          
------------------------------------|------------------------------------|
------------------------------------|------------------------------------|
--3----3--3--3--3--3----3--3--3--3--|------------------------------------|
------------------------------------|--3----3--3--3--3--3----3--3--3--3--|


                                                                          
------------------------------------|------------------------------------|
------------------------------------|------------------------------------|
--1----1--1--1--1--1----1--1--1--1--|------------------------------------|
------------------------------------|--1----1--1--1--1--1----1--3--3--3--|


                                                                          
------------------------------------|------------------------------------|
------------------------------------|------------------------------------|
------------------------------------|------------------------------------|
--4----4--4--4--4--4----4--4--4--4--|--6----6--6--6--6--6----6--6--6--6--|


                                                                   
------------------------------------|-----------------------------|
------------------------------------|-----------------------------|
--3----3--3--3--3--3----3--3--3--3--|--3----3--3--3--3--3---------|
------------------------------------|------------------------3----|


                                                              
|-------------------------------|---------------------------||
|*------------------------------|--------------------------*||
|*----------------3----3--3--3--|--1----1--1--1--3----3----*||
|---1----1--1--1----------------|---------------------------||


                                                          
--------------------------|------------------------------|
--------------------------|------------------------------|
--1----1--1--1--3----3----|----------------3----3--3--3--|
--------------------------|--1----1--1--1----------------|


                                                                               
-------------------------|--------------------------|-------------------------|
-------------------------|--------------------------|-------------------------|
--1----1--1--1--3--------|----------------3----3----|--1----1--1--1--3--------|
-------------------------|--1----1--1--1------------|-------------------------|


                                                                          
|---------------------------------------|-------------------------------||
|*-----------------5--3--3--3--3--------|------------------------------*||
|*--3--3--3--3--6-----------------6--5--|--6--6--6--6--5--3------------*||
|---------------------------------------|--------------------6----6-----||


                                                          
------------------------------|--------------------------|
------------------------------|--------------------------|
--6--6--6--6--5--3------------|--3--3--3--3--------------|
--------------------6----6----|--------------------------|


                                                           
-------------------------------|--------------------------|
-------------------------------|--------------------------|
-------------------------------|--1--1--1--1--------------|
------3--3--3--3------3--3--3--|--------------------------|


                                                                      
--------------------------------|------------------------------------|
--------------------------------|------------------------------------|
--------------------------------|------------------------------------|
------1--1--1--1----1--3--3--3--|--4----4--4--4--4--4----4--4--4--4--|


                                                                          
------------------------------------|------------------------------------|
------------------------------------|------------------------------------|
------------------------------------|--3----3--3--3--3--3----3--3--3--3--|
--6----6--6--6--6--6----6--6--6--6--|------------------------------------|


                                                                
------------------------------------|--------------------------|
------------------------------------|--------------------------|
--3----3--3--3--3--3----3--1--1--1--|--3--3--3--3--------------|
------------------------------------|--------------------------|


                                                           
-------------------------------|--------------------------|
-------------------------------|--------------------------|
-------------------------------|--1--1--1--1--------------|
------3--3--3--3------3--3--3--|--------------------------|


                                                                      
--------------------------------|------------------------------------|
--------------------------------|------------------------------------|
--------------------------------|------------------------------------|
------1--1--1--1----1--3--3--3--|--4----4--4--4--4--4----4--4--4--4--|


                                                                          
------------------------------------|------------------------------------|
------------------------------------|------------------------------------|
------------------------------------|--3----3--3--3--3--3----3--3--3--3--|
--6----6--6--6--6--6----6--6--6--6--|------------------------------------|


                                                               
-----------------------------||-------------------------------|
-----------------------------||*------------------------------|
--3----3--3--3--3--3---------||*----------------3----3--3--3--|
------------------------3----||---1----1--1--1----------------|


                                                        
---------------------------||--------------------------|
--------------------------*||--------------------------|
--1----1--1--1--3----3----*||--1----1--1--1--3----3----|
---------------------------||--------------------------|


                                                         
------------------------------|-------------------------|
------------------------------|-------------------------|
----------------3----3--3--3--|--1----1--1--1--3--------|
--1----1--1--1----------------|-------------------------|


                                                     
--------------------------|-------------------------|
--------------------------|-------------------------|
----------------3----3----|--1----1--1--1--3--------|
--1----1--1--1------------|-------------------------|


                                                                                
|---------------------------------------|--------------------------------------|
|*--------------------------------------|--------------------------------------|
|*--3--3--3--3--3--3--3--3--3--3--3--3--|--------------------------------------|
|---------------------------------------|--4--4--4--4--4--4--4--4--4--4--4--4--|


                                                                                
--------------------------------------|---------------------------------------||
--------------------------------------|--------------------------------------*||
--3--3--3--3--3--3--3--3--3--3--3--3--|--1--1--1--1--1--1--1--1--1--1--1--1--*||
--------------------------------------|---------------------------------------||


                                                                          
----------------------------------|-------------------|------------------|
----------------------------------|-------------------|------------------|
--1--1--1--1--1--1--3----3--3--3--|--3----------------|------------------|
----------------------------------|-------------------|------------------|


                     3x                                          
|--------------------||--------------------|--------------------|
|*------------------*||--------------------|--------------------|
|*------------------*||------3--------3----|------3--------3----|
|--------------------||--------------------|--------------------|


                                                                           
--------------------|---------------0----||-------------------------------|
--------------------|--------------------||*------------------------------|
------3--------3----|------3-------------||*--3--3-3-3--3-3-3--3-3-3--3-3-|
--------------------|--------------------||-------------------------------|


                                                              
------------------------------|------------------------------|
------------------------------|------------------------------|
------------------------------|--1--1-1-1--1-1---------------|
--3--3-3-3--3-3-3--3-3-3--3-3-|----------------1--1-1-1--1-1-|


                                                                             
----------------------||------------------------------|---------------------|
---------------------*||------------------------------|---------------------|
--3---------3--------*||--1--1-1-1--1-1---------------|--3---------3--------|
-------3--------------||----------------1--1-1-1--1-1-|-------3-------------|


                                                                      
|----------------------------------|---------------------------------|
|*---------------------------------|---------------------------------|
|*--3--3-3-3-3-3-3-3-3-3-3-3-3-3-3-|---------------------------------|
|----------------------------------|--3--3-3-3-3-3-3-3-3-3-3-3-3-3-3-|


                                                                               
--------------------------------|----------------------||---------------------|
--------------------------------|---------------------*||---------------------|
--1--1-1-1-1-1-1----------------|--3---------3--------*||--3---------3--------|
-----------------1--1-1-1-1-1-1-|-------3--------------||-------3-------------|


                                                                                
-------------------|-------------------|-------------------|-------------------|
-------------------|-------------------|-------------------|-------------------|
-------------------|--3----------------|--1----------------|--3----------------|
--1----------------|-------------------|-------------------|-------------------|


                                                            
-------------------|-------------------|-------------------|
-------------------|-------------------|-------------------|
-------------------|--3----------------|--1----------------|
--1----------------|-------------------|-------------------|


                                                                     
---------------------------------|----------------------------------|
---------------------------------|----------------------------------|
--3--3-3-3-3-3-3-3-3-3-3-3-3-3-3-|----------------------------------|
---------------------------------|--1-1-1-1-1-1-1-1-1-1-1-1-1-1-1-1-|


                                                                      
----------------------------------|----------------------------------|
----------------------------------|----------------------------------|
--3-3-3-3-3-3-3-3-3-3-3-3-3-3-3-3-|--1-1-1-1-1-1-1-1-1-1-1-1-1-1-1-1-|
----------------------------------|----------------------------------|


                                                                      
----------------------------------|----------------------------------|
----------------------------------|----------------------------------|
--3-3-3-3-3-3-3-3-3-3-3-3-3-3-3-3-|----------------------------------|
----------------------------------|--1-1-1-1-1-1-1-1-1-1-1-1-1-1-1-1-|


                                                                      
----------------------------------|----------------------------------|
----------------------------------|----------------------------------|
--3-3-3-3-3-3-3-3-3-3-3-3-3-3-3-3-|--1-1-1-1-1-1-1-1-1-1-1-1-1-1-1-1-|
----------------------------------|----------------------------------|


                                                         
-------------------||-----------------------------------|
-------------------||*----------------------------------|
--3----------------||*--3-3-3-3-3-3-3-3-3-3-3-3-3-3-3-3-|
-------------------||-----------------------------------|


                                                                      
----------------------------------|----------------------------------|
----------------------------------|----------------------------------|
----------------------------------|--6-6-6-6-6-6-6-6-----------------|
--3-3-3-3-3-3-3-3-3-3-3-3-3-3-3-3-|------------------6-6-6-6-6-6-6-6-|


                                              
----------------------||---------------------|
---------------------*||---------------------|
--3---------3--------*||--3---------3--------|
-------3--------------||-------3-------------|


                                                                      
----------------------------------|----------------------------------|
----------------------------------|----------------------------------|
--3-3-3-3-3-3-3-3-3-3-3-3-3-3-3-3-|----------------------------------|
----------------------------------|--3-3-3-3-3-3-3-3-3-3-3-3-3-3-3-3-|


                                                         
----------------------------------|---------------------|
----------------------------------|---------------------|
--6-6-6-6-6-6-6-6-----------------|--3---------3--------|
------------------6-6-6-6-6-6-6-6-|-------3-------------|


                                                                      
----------------------------------|----------------------------------|
----------------------------------|----------------------------------|
--3-3-3-3-3-3-3-3-3-3-3-3-3-3-3-3-|----------------------------------|
----------------------------------|--3-3-3-3-3-3-3-3-3-3-3-3-3-3-3-3-|


                                                                            
----------------------------------|---------------------|------------------|
----------------------------------|---------------------|------------------|
--6-6-6-6-6-6-6-6-----------------|--3---------3--------|------------------|
------------------6-6-6-6-6-6-6-6-|-------3-------------|------------------|


                    
------------------||
------------------||
------------------||
------------------||

ĂŽnscrie-te la newsletter


Like us on Facebook