Warriors Quest Tab - Ensiferum






                                Warrior's Quest


                                                                       Ensiferum
Rhythm

     Q    Q    Q    Q    Q    Q
E||--------------------------------|
B||--------------------------------|
G||--------------------------------|
D||--6---------L----4---------L----|
A||--4----L----L----2----L----L----|
E||--------------------------------|


  S S S S S S S S S S S S S S S S S S S S S S S S
--------------------------------------------------|
--------------------------------------------------|
--------------------------------------------------|
--4---------L-------------4---------L-------------|
--2-L-L-L-L-L-2---------L-2-L-L-L-L-L-4---------L-|
--------------0-L-L-L-L-L-------------2-L-L-L-L-L-|


  Q    Q    Q    Q    Q    Q
--------------------------------|
--------------------------------|
--------------------------------|
--6---------L----4---------L----|
--4----L----L----2----L----L----|
--------------------------------|


  S S S S S S S S S S S S S S S S S S S S S S S S
--------------------------------------------------|
--------------------------------------------------|
--------------------------------------------------|
--4---------L-------------4---------L-------------|
--2-L-L-L-L-L-2---------L-2-L-L-L-L-L-4---------L-|
--------------0-L-L-L-L-L-------------2-L-L-L-L-L-|


  Q    Q    Q    Q    Q    Q
--------------------------------|
--------------------------------|
--------------------------------|
--6---------L----4---------L----|
--4----L----L----2----L----L----|
--------------------------------|


  S S S S S S S S S S S S S S S S S S S S S S S S
--------------------------------------------------|
--------------------------------------------------|
--------------------------------------------------|
--4---------L-------------4---------L-------------|
--2-L-L-L-L-L-2---------L-2-L-L-L-L-L-4---------L-|
--------------0-L-L-L-L-L-------------2-L-L-L-L-L-|


  Q    Q    Q    Q    Q    Q
--------------------------------|
--------------------------------|
--------------------------------|
--6---------L----4---------L----|
--4----L----L----2----L----L----|
--------------------------------|


  S S S S S S S S S S S S S S S S S S S S S S S S
--------------------------------------------------|
--------------------------------------------------|
--------------------------------------------------|
--4---------L-------------4---------L-------------|
--2-L-L-L-L-L-2---------L-2-L-L-L-L-L-4---------L-|
--------------0-L-L-L-L-L-------------2-L-L-L-L-L-|


  S S S S S S S S S S S S S S S S S S S S S S S S
--------------------------------------------------|
--------------------------------------------------|
--------------------------------------------------|
--------------------------------------------------|
--4---------------------L-7---------L-2---------L-|
--2-L-L-L-L-L-L-L-L-L-L-L-5-L-L-L-L-L-0-L-L-L-L-L-|


  S S S S S S S S S S S S S S S S S S S S S S S S
--------------------------------------------------|
--------------------------------------------------|
--------------------------------------------------|
--------------------------------------------------|
--7---------L-2---------L-4-L---------------------|
--5-L-L-L-L-L-0-L-L-L-L-L-2-L-2-2-2-2-5-L-5-4-0-L-|


  S S S S S S S S S S S S S S S S S S S S S S S S
--------------------------------------------------|
--------------------------------------------------|
--------------------------------------------------|
--------------------------------------------------|
--4---------------------L-7---------L-2---------L-|
--2-L-L-L-L-L-L-L-L-L-L-L-5-L-L-L-L-L-0-L-L-L-L-L-|


  S S S S S S S S S S S S S S S S S S S S S S S S
--------------------------------------------------|
--------------------------------------------------|
--------------------------------------------------|
--------------------------------------------------|
--7---------L-2---------L-4-L-L-L-L-L-L-L-L-L-----|
--5-L-L-L-L-L-0-L-L-L-L-L-2-L-L-L-L-L-L-L-L-L-2-2-|


  S S S S S S S S S S S S S S S S S S S S S S S S
--------------------------------------------------|
--------------------------------------------------|
--------------------------------------------------|
--------------------------------------------------|
--4-----L-----4-L-----4-L-7---------L-2---------L-|
--2-L-L-L-2-2-2-L-2-2-2-L-5-L-L-L-L-L-0-L-L-L-L-L-|


  S S S S S S S S S S S S S S S S S S S S S S S S
--------------------------------------------------|
--------------------------------------------------|
--------------------------------------------------|
--------------------------------------------------|
--7---------L-2---------L-4-L---------------------|
--5-L-L-L-L-L-0-L-L-L-L-L-2-L-2-2-2-2-5-L-5-4-0-L-|


  S S S S S S S S S S S S S S S S S S S S S S S S
--------------------------------------------------|
--------------------------------------------------|
--------------------------------------------------|
--------------------------------------------------|
--4-----L-----4-L-----4-L-7---------L-2---------L-|
--2-L-L-L-2-2-2-L-2-2-2-L-5-L-L-L-L-L-0-L-L-L-L-L-|


  S S S S S S S S S S S S S S S S S S S S S S S S
--------------------------------------------------|
--------------------------------------------------|
--------------------------------------------------|
--------------------------------------------------|
--7---------L-2---------L-4-L-L-L-L-L-L-L-L-L-L-L-|
--5-L-L-L-L-L-0-L-L-L-L-L-2-L-L-L-L-L-L-L-L-L-L-L-|


  T T T T T T T T T T T T T T T T T T T T T T T T T T T T T T T T T T T T T T T
--------------------------------------------------------------------------------|
--------------------------------------------------------------------------------|
--------------------------------------------------------------------------------|
--------------------------------------------------------------------------------|
--4-----L-----------------4-----L-----------------7-----L-----------------2-----|
--2-L-L-L-2-2-2-2-2-2-2-2-2-L-L-L-2-2-2-2-2-2-2-2-5-L-L-L-5-5-5-5-5-5-5-5-0-L-L-|


  T T T T T T T T T T T T T T T T T T T T T T T T T T T T T T T T T T T T T T T
--------------------------------------------------------------------------------|
--------------------------------------------------------------------------------|
--------------------------------------------------------------------------------|
--------------------------------------------------------------------------------|
--7-----L-----------------2-----L-----------------4-----L---------2-----L-4-----|
--5-L-L-L-5-5-5-5-5-5-5-5-0-L-L-L-0-0-0-0-0-0-0-0-2-L-L-L-2-2-2-2-0-L-L-L-2-L-L-|


  T T T T T T T T T T T T T T T T T T T T T T T T T T T T T T T T T T T T T T T
--------------------------------------------------------------------------------|
--------------------------------------------------------------------------------|
--------------------------------------------------------------------------------|
--------------------------------------------------------------------------------|
--4-----L-----------------4-----L-----------------7-----L-----------------2-----|
--2-L-L-L-2-2-2-2-2-2-2-2-2-L-L-L-2-2-2-2-2-2-2-2-5-L-L-L-5-5-5-5-5-5-5-5-0-L-L-|


  T T T T T T T T T T T T T T T T T T T T T T T T T T T T T T T T T T T T T T T
--------------------------------------------------------------------------------|
--------------------------------------------------------------------------------|
--------------------------------------------------------------------------------|
--------------------------------------------------------------------------------|
--7-----L-----------------2-----L-----------------4-----L---------2-----L-4-----|
--5-L-L-L-5-5-5-5-5-5-5-5-0-L-L-L-0-0-0-0-0-0-0-0-2-L-L-L-2-2-2-2-0-L-L-L-2-L-L-|


  T T T T T T T T T T T T T T T T T T T T T T T T T T T T T T T T T T T T T T T
--------------------------------------------------------------------------------|
--------------------------------------------------------------------------------|
--------------------------------------------------------------------------------|
--------------------------------------------------------------------------------|
--------------------------------------------------------------------------------|
--2-2-2-2-2-2-2-2-0-0-0-0-2-2-2-2-2-2-2-2-0-0-0-0-4-4-4-4-4-4-4-4-5-5-5-5-4-4-4-|


  T T T T T T T T T T T T T T T T T T T T T T T T T T T T T T T T T T T T T T T
--------------------------------------------------------------------------------|
--------------------------------------------------------------------------------|
--------------------------------------------------------------------------------|
--------------------------------------------------------------------------------|
--------------------------------------------------------------------------------|
--5-5-5-5-5-5-5-5-7-7-7-7-4-4-4-4-4-4-4-4-0-0-0-0-4-4-4-4-4-4-4-4-5-5-5-5-2-2-2-|


  T T T T T T T T T T T T T T T T T T T T T T T T T T T T T T T T T T T T T T T
--------------------------------------------------------------------------------|
--------------------------------------------------------------------------------|
--------------------------------------------------------------------------------|
--------------------------------------------------------------------------------|
--------------------------------------------------------------------------------|
--2-2-2-2-2-2-2-2-0-0-0-0-2-2-2-2-2-2-2-2-0-0-0-0-4-4-4-4-4-4-4-4-5-5-5-5-4-4-4-|


  T T T T T T T T T T T T T T T T T T T T T T T T T T T T T T T T T T T T T T T
--------------------------------------------------------------------------------|
--------------------------------------------------------------------------------|
--------------------------------------------------------------------------------|
--------------------------------------------------------------------------------|
--4-4-4-4-4-4-4-4---------------------------------------------------------------|
------------------5-5-5-5-4-4-4-4-4-4-4-4-0-0-0-0-4-4-4-4-4-4-4-4-5-5-5-5-2-2-2-|


  S S S S S S S S S S S S S S S S S S S S S S S S
--------------------------------------------------|
--------------------------------------------------|
--------------------------------------------------|
--------------------------------------------------|
--4---------------------L-7---------L-2---------L-|
--2-L-L-L-L-L-L-L-L-L-L-L-5-L-L-L-L-L-0-L-L-L-L-L-|


  S S S S S S S S S S S S S S S S S S S S S S S S
--------------------------------------------------|
--------------------------------------------------|
--------------------------------------------------|
--------------------------------------------------|
--7---------L-2---------L-4-L---------------------|
--5-L-L-L-L-L-0-L-L-L-L-L-2-L-2-2-2-2-5-L-5-4-0-L-|


  S S S S S S S S S S S S S S S S S S S S S S S S
--------------------------------------------------|
--------------------------------------------------|
--------------------------------------------------|
--------------------------------------------------|
--4-----L-----4-L-----4-L-7---------L-2---------L-|
--2-L-L-L-2-2-2-L-2-2-2-L-5-L-L-L-L-L-0-L-L-L-L-L-|


  S S S S S S S S S S S S S S S S S S S S S S S S
--------------------------------------------------|
--------------------------------------------------|
--------------------------------------------------|
--------------------------------------------------|
--7---------L-2---------L-4-L-L-L-L-L-L-L-L-L-L-L-|
--5-L-L-L-L-L-0-L-L-L-L-L-2-L-L-L-L-L-L-L-L-L-L-L-|


  S S S S S S S S S S S S S S S S S S S S S S S S
--------------------------------------------------|
--------------------------------------------------|
--------------------------------------------------|
--------------------------------------------------|
--4-L---------4-L---------2-L---------2-L---------|
--2-L-2-2-2-2-2-L-2-2-2-2-0-L-0-0-0-0-0-L-2-2-4-4-|


  S S S S S S S S S S S S S S S S S S S S S S S S
--------------------------------------------------|
--------------------------------------------------|
--------------------------------------------------|
--------------------------------------------------|
--7-L---------7-L---------2-L---------2-L---------|
--5-L-5-5-5-5-5-L-5-5-5-5-0-L-0-0-0-0-0-L-5-5-4-L-|


  S S S S S S S S S S S S S S S S S S S S S S S S
--------------------------------------------------|
--------------------------------------------------|
--------------------------------------------------|
--------------------------------------------------|
--4-L---------4-L---------2-L---------2-L---------|
--2-L-2-2-2-2-2-L-2-2-2-2-0-L-0-0-0-0-0-L-2-2-4-4-|


  S S S S S S S S S S S S S S S S S S S S S S S S
--------------------------------------------------|
--------------------------------------------------|
--------------------------------------------------|
--------------------------------------------------|
--7-L---------7-L---------2-L---------2-L---------|
--5-L-5-5-5-5-5-L-5-5-5-5-0-L-0-0-0-0-0-L-5-L-4-L-|


  E  E  E  E  E  E  E  E  E  E  E  E     E  E  E  E  E  E  E  E  E  E  E  E
--------------------------------------|--------------------------------------|
--------------------------------------|--------------------------------------|
--------------------------------------|-----------------------------4--L--L--|
--4--L--L--L--L--4--6--L--7--6--L--L--|--7--L--7--7--9--7--6--L--6-----------|
--------------------------------------|--------------------------------------|
--------------------------------------|--------------------------------------|


  E  E  E  E  E  E  E  E  E  E  E  E     E  E  E  E  E  E  E  E  E  E  E  E
--------------------------------------|--------------------------------------|
--------------------------------------|--------------------------------------|
--------------------------------------|-----------------------------4--L--L--|
--4--L--L--L--L--4--6--L--7--6--L--L--|--7--L--7--7--9--7--6--L--6-----------|
--------------------------------------|--------------------------------------|
--------------------------------------|--------------------------------------|


  S S S S S S S S S S S S S S S S S S S S S S S S
--------------------------------------------------|
--------------------------------------------------|
--------------------------------------------------|
--4---------------------L-7-L-L-L-L-L-------------|
--2-L-L-L-L-L-L-L-L-L-L-L-5---------L-7---------L-|
--------------------------------------5-L-L-L-L-L-|


  S S S S S S S S S S S S S S S S S S S S S S S S
--------------------------------------------------|
--------------------------------------------------|
--------------------------------------------------|
--7---------L-------------4-----------------------|
--5-L-L-L-L-L-7---------L-2-L-L-2-2-2-5-5-5-4-0-L-|
--------------5-L-L-L-L-L-------------------------|


  S S S S S S S S S S S S S S S S S S S S S S S S
--------------------------------------------------|
--------------------------------------------------|
--------------------------------------------------|
--4---------------------L-7-L-L-L-L-L-------------|
--2-L-L-L-L-L-L-L-L-L-L-L-5---------L-7---------L-|
--------------------------------------5-L-L-L-L-L-|


  S S S S S S S S S S S S S S S S S S S S S S S S
--------------------------------------------------|
--------------------------------------------------|
--------------------------------------------------|
--7---------L-------------4-L-L-L-L-L-L-L-L-L-L-L-|
--5-L-L-L-L-L-7---------L-2-L-L-L-L-L-L-L-L-L-L-L-|
--------------5-L-L-L-L-L-------------------------|


  S S S S S S S S S S S S S S S S S S S S S S S S
--------------------------------------------------|
--------------------------------------------------|
--------------------------------------------------|
--------------------------------------9-L---------|
--9-L---------9-L---------9-L---------7-L-7-7-7-7-|
--7-L-7-7-7-7-7-L-7-7-7-7-7-L-7-7-7-7-------------|


  S S S S S S S S S S S S S S S S S S S S S S S S
--------------------------------------------------|
--------------------------------------------------|
--------------------------------------------------|
--------------------------------------9-L---------|
--9-L---------9-L---------9-L---------7-L-7-7-7-7-|
--7-L-7-7-7-7-7-L-7-7-7-7-7-L-7-7-7-7-------------|


  S S S S S S S S S S S S S S S S S S S S S S S S
--------------------------------------------------|
--------------------------------------------------|
--------------------------------------------------|
--------------------------------------9-L---------|
--9-L---------9-L---------9-L---------7-L-7-7-7-7-|
--7-L-7-7-7-7-7-L-7-7-7-7-7-L-7-7-7-7-------------|


  S S S S S S S S S S S S S S S S S S S S S S S S
--------------------------------------------------|
--------------------------------------------------|
--------------------------------------------------|
--------------------------------------9-L---------|
--9-L---------9-L---------9-L---------7-L-7-7-7-7-|
--7-L-7-7-7-7-7-L-7-7-7-7-7-L-7-7-7-7-------------|


  S S S S S S S S S S S S S S S S S S S S S S S S
--------------------------------------------------|
--------------------------------------------------|
--------------------------------------------------|
--------------------------------------------------|
--------------------------------------------------|
--7-L-7-7-7-7-7-L-7-7-7-7-7-L-7-7-7-7-7-L-7-7-7-7-|


  S S S S S S S S S S S S S S S S S S S S S S S S
--------------------------------------------------|
--------------------------------------------------|
--------------------------------------------------|
--------------------------------------------------|
--------------------------------------------------|
--7-L-7-7-7-7-7-L-7-7-7-7-7-L-7-7-7-7-7-L-7-7-7-7-|


  S S S S S S S S S S S S S S S S S S S S S S S S
--------------------------------------------------|
--------------------------------------------------|
--------------------------------------------------|
--------------------------------------------------|
--9-L---------9-L---------9-L---------5-L-5-4-----|
--7-L-7-7-7-7-7-L-7-7-7-7-7-L-7-7-7-7---------5-L-|


  S S S S S S S S S S S S S S S S S S S S S S S S
--------------------------------------------------|
--------------------------------------------------|
--------------------------------------------------|
--------------------------------------------------|
--9-L---------9-L---------9-L---------5-L-5-4-----|
--7-L-7-7-7-7-7-L-7-7-7-7-7-L-7-7-7-7---------5-L-|


  S S S S S S S S S S S S S S S S S S S S S S S S
--------------------------------------------------|
--------------------------------------------------|
--------------------------------------------------|
--------------------------------------------------|
--9-L---------9-L---------9-L---------5-L-5-4-----|
--7-L-7-7-7-7-7-L-7-7-7-7-7-L-7-7-7-7---------5-L-|


  S S S S S S S S S S S S S S S S S S S S S S S S
--------------------------------------------------|
--------------------------------------------------|
--------------------------------------------------|
--------------------------------------------------|
--9-L---------9-L---------9-L---------5-L-5-4-----|
--7-L-7-7-7-7-7-L-7-7-7-7-7-L-7-7-7-7---------5-L-|


  Q    Q    Q     Q    Q    Q        Q    Q    Q     Q    Q    Q
---------------------------------|----------------------------------|
---------------------------------|----------------------------------|
---------------------------------|----------------------------------|
---------------------------------|----------------------------------|
--9---------L----11---------L----|--12---------L----11---------L----|
--7----L----L-----9----L----L----|--10----L----L-----9----L----L----|


  Q    Q    Q     Q    Q    Q        Q    Q    Q     Q    Q    Q
---------------------------------|----------------------------------|
---------------------------------|----------------------------------|
---------------------------------|----------------------------------|
---------------------------------|----------------------------------|
--9---------L----11---------L----|--12---------L----11---------L----|
--7----L----L-----9----L----L----|--10----L----L-----9----L----L----|


  Q    Q    Q    Q    Q    Q
--------------------------------|
--------------------------------|
--------------------------------|
--6---------L----4---------L----|
--4----L----L----2----L----L----|
--------------------------------|


  S S S S S S S S S S S S S S S S S S S S S S S S
--------------------------------------------------|
--------------------------------------------------|
--------------------------------------------------|
--4---------L-------------4---------L-------------|
--2-L-L-L-L-L-2---------L-2-L-L-L-L-L-4---------L-|
--------------0-L-L-L-L-L-------------2-L-L-L-L-L-|


  Q    Q    Q    Q    S S S S S S S S
--------------------------------------|
--------------------------------------|
--------------------------------------|
--6---------L----4----L-L-------------|
--4----L----L----2----L-L-------------|
--------------------------0-L-2-L-4-L-|


  S S S S S S S S S S S S S S S S S S S S S S S S
--------------------------------------------------|
--------------------------------------------------|
--------------------------------------------------|
--4---------L-------------4---------L-------------|
--2-L-L-L-L-L-2---------L-2-L-L-L-L-L-4---------L-|
--------------0-L-L-L-L-L-------------2-L-L-L-L-L-|


  T T T T T T T T T T T T T T T T T T T T T T T T T T T T T T T T T T T T T T T
--------------------------------------------------------------------------------|
--------------------------------------------------------------------------------|
--------------------------------------------------------------------------------|
--------------------------------------------------------------------------------|
--------------------------------------------------------------------------------|
--2-2-2-2-2-2-2-2-0-0-0-0-2-2-2-2-2-2-2-2-0-0-0-0-4-4-4-4-4-4-4-4-5-5-5-5-4-4-4-|


  T T T T T T T T T T T T T T T T T T T T T T T T T T T T T T T T T T T T T T T
--------------------------------------------------------------------------------|
--------------------------------------------------------------------------------|
--------------------------------------------------------------------------------|
--------------------------------------------------------------------------------|
--------------------------------------------------------------------------------|
--5-5-5-5-5-5-5-5-7-7-7-7-4-4-4-4-4-4-4-4-0-0-0-0-4-4-4-4-4-4-4-4-5-5-5-5-2-2-2-|


  T T T T T T T T T T T T T T T T T T T T T T T T T T T T T T T T T T T T T T T
--------------------------------------------------------------------------------|
--------------------------------------------------------------------------------|
--------------------------------------------------------------------------------|
--------------------------------------------------------------------------------|
--------------------------------------------------------------------------------|
--2-2-2-2-2-2-2-2-0-0-0-0-2-2-2-2-2-2-2-2-0-0-0-0-4-4-4-4-4-4-4-4-5-5-5-5-4-4-4-|


  T T T T T T T T T T T T T T T T T T T T T T T T T T T T T T T T T T T T T T T
--------------------------------------------------------------------------------|
--------------------------------------------------------------------------------|
--------------------------------------------------------------------------------|
--------------------------------------------------------------------------------|
--4-4-4-4-4-4-4-4---------------------------------------------------------------|
------------------5-5-5-5-4-4-4-4-4-4-4-4-0-0-0-0-4-4-4-4-4-4-4-4-5-5-5-5-2-2-2-|


  T T T T T T T T T T T T T T T T T T T T T T T T T T T T T T T T T T T T T T T
--------------------------------------------------------------------------------|
--------------------------------------------------------------------------------|
--------------------------------------------------------------------------------|
--------------------------------------------------------------------------------|
--------------------------------------------------------------------------------|
--2-2-2-2-2-2-2-2-0-0-0-0-2-2-2-2-2-2-2-2-0-0-0-0-4-4-4-4-4-4-4-4-5-5-5-5-4-4-4-|


  T T T T T T T T T T T T T T T T T T T T T T T T T T T T T T T T T T T T T T T
--------------------------------------------------------------------------------|
--------------------------------------------------------------------------------|
--------------------------------------------------------------------------------|
--------------------------------------------------------------------------------|
--------------------------------------------------------------------------------|
--5-5-5-5-5-5-5-5-7-7-7-7-4-4-4-4-4-4-4-4-0-0-0-0-4-4-4-4-4-4-4-4-5-5-5-5-2-2-2-|


  T T T T T T T T T T T T T T T T T T T T T T T T T T T T T T T T T T T T T T T
--------------------------------------------------------------------------------|
--------------------------------------------------------------------------------|
--------------------------------------------------------------------------------|
--------------------------------------------------------------------------------|
--------------------------------------------------------------------------------|
--2-2-2-2-2-2-2-2-0-0-0-0-2-2-2-2-2-2-2-2-0-0-0-0-4-4-4-4-4-4-4-4-5-5-5-5-4-4-4-|


  T T T T T T T T T T T T T T T T T T T T T T T T T T T T T T T T T T T T T T T
--------------------------------------------------------------------------------|
--------------------------------------------------------------------------------|
--------------------------------------------------------------------------------|
--------------------------------------------------------------------------------|
--4-4-4-4-4-4-4-4---------------------------------------------------------------|
------------------5-5-5-5-4-4-4-4-4-4-4-4-0-0-0-0-4-4-4-4-4-4-4-4-5-5-5-5-2-2-2-|


  E  E  E  E  E  E  E  E  E  E  E  E     E  E  E  E  E  E  E  E  E  E  E  E
--------------------------------------|--------------------------------------|
--------------------------------------|--------------------------------------|
--------------------------------------|-----------------------------4--L--L--|
--4--L--L--L--L--4--6--L--7--6--L--L--|--7--L--7--7--9--7--6--L--6-----------|
--------------------------------------|--------------------------------------|
--------------------------------------|--------------------------------------|


  E  E  E  E  E  E  E  E  E  E  E  E     E  E  E  E  E  E  E  E  E  E  E  E
--------------------------------------|--------------------------------------|
--------------------------------------|--------------------------------------|
--------------------------------------|-----------------------------4--L--L--|
--4--L--L--L--L--4--6--L--7--6--L--L--|--7--L--7--7--9--7--6--L--6-----------|
--------------------------------------|--------------------------------------|
--------------------------------------|--------------------------------------|


  S S S S S S S S S S S S S S S S S S S S S S S S
--------------------------------------------------|
--------------------------------------------------|
--------------------------------------------------|
--------------------------------------------------|
--4---------------------L-7---------L-2---------L-|
--2-L-L-L-L-L-L-L-L-L-L-L-5-L-L-L-L-L-0-L-L-L-L-L-|


  S S S S S S S S S S S S S S S S S S S S S S S S
--------------------------------------------------|
--------------------------------------------------|
--------------------------------------------------|
--------------------------------------------------|
--7---------L-2---------L-4-L---------------------|
--5-L-L-L-L-L-0-L-L-L-L-L-2-L-2-2-2-2-5-L-5-4-0-L-|


  S S S S S S S S S S S S S S S S S S S S S S S S
--------------------------------------------------|
--------------------------------------------------|
--------------------------------------------------|
--------------------------------------------------|
--4---------------------L-7---------L-2---------L-|
--2-L-L-L-L-L-L-L-L-L-L-L-5-L-L-L-L-L-0-L-L-L-L-L-|


  S S S S S S S S S S S S S S S S S S S S S S S S
--------------------------------------------------|
--------------------------------------------------|
--------------------------------------------------|
--------------------------------------------------|
--7---------L-2---------L-4-L-L-L-L-L-L-L-L-L-----|
--5-L-L-L-L-L-0-L-L-L-L-L-2-L-L-L-L-L-L-L-L-L-2-2-|


  S S S S S S S S S S S S S S S S S S S S S S S S
--------------------------------------------------|
--------------------------------------------------|
--------------------------------------------------|
--------------------------------------------------|
--4-----L-----4-L-----4-L-7---------L-2---------L-|
--2-L-L-L-2-2-2-L-2-2-2-L-5-L-L-L-L-L-0-L-L-L-L-L-|


  S S S S S S S S S S S S S S S S S S S S S S S S
--------------------------------------------------|
--------------------------------------------------|
--------------------------------------------------|
--------------------------------------------------|
--7---------L-2---------L-4-L---------------------|
--5-L-L-L-L-L-0-L-L-L-L-L-2-L-2-2-2-2-5-L-5-4-0-L-|


  S S S S S S S S S S S S S S S S S S S S S S S S
--------------------------------------------------|
--------------------------------------------------|
--------------------------------------------------|
--------------------------------------------------|
--4-----L-----4-L-----4-L-7---------L-2---------L-|
--2-L-L-L-2-2-2-L-2-2-2-L-5-L-L-L-L-L-0-L-L-L-L-L-|


  S S S S S S S S S S S S S S S S S S S S S S S S
--------------------------------------------------||
--------------------------------------------------||
--------------------------------------------------||
--------------------------------------------------||
--7---------L-2---------L-4-L-L-L-L-L-L-L-L-L-L-L-||
--5-L-L-L-L-L-0-L-L-L-L-L-2-L-L-L-L-L-L-L-L-L-L-L-||


Lead

     S S S S S S S S S S S S S S S S S S S S S S S S
E||--------------------------------------------------|
B||--------------------------------------------------|
G||--6-L---------------------------------------------|
D||------7-L-6-L-4-L-6-L-7-L-9-L-7-L-6-L---------6-L-|
A||--------------------------------------7-L-9-L-----|
E||--------------------------------------------------|


  S S S S S S S S S S S S S S S S S S S S S S S S
--------------------------------------------------|
--------------------------------------------------|
--------------------------------------------------|
--9-L-7-L-6-L---------6-L-9-L-7-L-6-L-4-L-L-L-L-L-|
--------------7-L-9-L-----------------------------|
--------------------------------------------------|


  S S S S S S S S S S S S S S S S S S S S S S S S
--------------------------------------------------|
--------------------------------------------------|
--6-L---------------------------------------------|
------7-L-6-L-4-L-6-L-7-L-9-L-7-L-6-L---------6-L-|
--------------------------------------7-L-9-L-----|
--------------------------------------------------|


  S S S S S S S S S S S S S S S S S S S S S S S S
--------------------------------------------------|
--------------------------------------------------|
--------------------------------------------------|
--9-L-7-L-6-L---------6-L-9-L-7-L-6-L-4-L-L-L-L-L-|
--------------7-L-9-L-----------------------------|
--------------------------------------------------|


  S S S S S S S S S S S S S S S S S S S S S S S S
--------------------------------------------------|
--------------------------------------------------|
--6-L---------------------------------------------|
------7-L-6-L-4-L-6-L-7-L-9-L-7-L-6-L---------6-L-|
--------------------------------------7-L-9-L-----|
--------------------------------------------------|


  S S S S S S S S S S S S S S S S S S S S S S S S
--------------------------------------------------|
--------------------------------------------------|
--------------------------------------------------|
--9-L-7-L-6-L---------6-L-9-L-7-L-6-L-4-L-L-L-L-L-|
--------------7-L-9-L-----------------------------|
--------------------------------------------------|


  S S S S S S S S S S S S S S S S S S S S S S S S
--------------------------------------------------|
--------------------------------------------------|
--6-L---------------------------------------------|
------7-L-6-L-4-L-6-L-7-L-9-L-7-L-6-L---------6-L-|
--------------------------------------7-L-9-L-----|
--------------------------------------------------|


  S S S S S S S S S S S S S S S S S S S S S S S S
--------------------------------------------------|
--------------------------------------------------|
--------------------------------------------------|
--9-L-7-L-6-L---------6-L-7-L-9-L-6-L-4-L-L-L-L-L-|
--------------7-L-9-L-----------------------------|
--------------------------------------------------|


  S S S S S S S S S S S S S S S S S S S S S S S S
--------------------------------------------------|
--------------------------------------------------|
--6-L-L-L-------------6-L-------------------------|
----------4-L-4-L-L-4-----7-L-L-L-7-L---------6-L-|
--------------------------------------7-L-L-7-----|
--------------------------------------------------|


  S S S S S S S S S S S S S S S S S S S S S S S S
--------------------------------------------------|
--------------------------------------------------|
----------------------------------------------6-L-|
--7-L-L-9-7-L-6-L-L-L-----------------------------|
----------------------7-L-9-L-L-L-L-L-L-L-L-L-----|
--------------------------------------------------|


  S S S S S S S S S S S S S S S S S S S S S S S S
--------------------------------------------------|
--------------------------------------------------|
--6-L-L-L-------------6-L-------------------------|
----------4-L-4-L-L-4-----7-L-L-L-7-L---------6-L-|
--------------------------------------7-L-L-7-----|
--------------------------------------------------|


  S S S S S S S S S S S S S S S S S S S S S S S S
--------------------------------------------------|
--------------------------------------------------|
----------------------------------------------6-L-|
--7-L-L-9-7-L-6-L-L-L-----------------------------|
----------------------7-L-9-L-L-L-L-L-L-L-L-L-----|
--------------------------------------------------|


  S S S S S S S S S S S S S S S S S S S S S S S S
--------------------------------------------------|
--------------------------------------------------|
--6-L-L-L-------------6-L-------------------------|
----------4-L-4-L-L-4-----7-L-L-L-7-L---------6-L-|
--------------------------------------7-L-L-7-----|
--------------------------------------------------|


  S S S S S S S S S S S S S S S S S S S S S S S S
--------------------------------------------------|
--------------------------------------------------|
----------------------------------------------6-L-|
--7-L-L-9-7-L-6-L-L-L-----------------------------|
----------------------7-L-9-L-L-L-L-L-L-L-L-L-----|
--------------------------------------------------|


  S S S S S S S S S S S S S S S S S S S S S S S S
--------------------------------------------------|
--------------------------------------------------|
--6-L-L-L-------------6-L-------------------------|
----------4-L-4-L-L-4-----7-L-L-L-7-L---------6-L-|
--------------------------------------7-L-L-7-----|
--------------------------------------------------|


  S S S S S S S S S S S S S S S S S S S S S S S S
--------------------------------------------------|
--------------------------------------------------|
--------------------------------------------------|
--7-L-L-9-7-L-6-L-L-L-----------------------------|
----------------------7-L-9-L-L-L-L-L-L-L-L-L-L-L-|
--------------------------------------------------|


  T T T T T T T T T T T T T T T T T T T T T T T T T T T T T T T T T T T T T T T
--------------------------------------------------------------------------------|
--------------------------------------------------------------------------------|
--------------------------------------------------------------------------------|
--------------------------------------------------------------------------------|
--4-----L-----------------4-----L-----------------7-----L-----------------2-----|
--2-L-L-L-2-2-2-2-2-2-2-2-2-L-L-L-2-2-2-2-2-2-2-2-5-L-L-L-5-5-5-5-5-5-5-5-0-L-L-|


  T T T T T T T T T T T T T T T T T T T T T T T T T T T T T T T T T T T T T T T
--------------------------------------------------------------------------------|
--------------------------------------------------------------------------------|
--------------------------------------------------------------------------------|
--------------------------------------------------------------------------------|
--7-----L-----------------2-----L-----------------4-----L---------2-----L-4-----|
--5-L-L-L-5-5-5-5-5-5-5-5-0-L-L-L-0-0-0-0-0-0-0-0-2-L-L-L-2-2-2-2-0-L-L-L-2-L-L-|


  T T T T T T T T T T T T T T T T T T T T T T T T T T T T T T T T T T T T T T T
--------------------------------------------------------------------------------|
--------------------------------------------------------------------------------|
--------------------------------------------------------------------------------|
--------------------------------------------------------------------------------|
--4-----L-----------------4-----L-----------------7-----L-----------------2-----|
--2-L-L-L-2-2-2-2-2-2-2-2-2-L-L-L-2-2-2-2-2-2-2-2-5-L-L-L-5-5-5-5-5-5-5-5-0-L-L-|


  T T T T T T T T T T T T T T T T T T T T T T T T T T T T T T T T T T T T T T T
--------------------------------------------------------------------------------|
--------------------------------------------------------------------------------|
--------------------------------------------------------------------------------|
--------------------------------------------------------------------------------|
--7-----L-----------------2-----L-----------------4-----L---------2-----L-4-----|
--5-L-L-L-5-5-5-5-5-5-5-5-0-L-L-L-0-0-0-0-0-0-0-0-2-L-L-L-2-2-2-2-0-L-L-L-2-L-L-|


  T T T T T T T T T T T T T T T T T T T T T T T T T T T T T T T T T T T T T T T
--------------------------------------------------------------------------------|
--------------------------------------------------------------------------------|
--------------------------------------------------------------------------------|
--4-4-4-4-4-4-4-4-2-2-2-2-4-4-4-4-4-4-4-4-2-2-2-2-6-6-6-6-6-6-6-6-7-7-7-7-6-6-6-|
--------------------------------------------------------------------------------|
--------------------------------------------------------------------------------|


  T T T T T T T T T T T T T T T T T T T T T T T T T T T T T T T T T T T T T T T
--------------------------------------------------------------------------------|
--------------------------------------------------------------------------------|
--------------------------------------------------------------------------------|
--7-7-7-7-7-7-7-7-9-9-9-9-6-6-6-6-6-6-6-6-2-2-2-2-6-6-6-6-6-6-6-6-7-7-7-7-4-4-4-|
--------------------------------------------------------------------------------|
--------------------------------------------------------------------------------|


  T T T T T T T T T T T T T T T T T T T T T T T T T T T T T T T T T T T T T T T
--------------------------------------------------------------------------------|
--------------------------------------------------------------------------------|
--------------------------------------------------------------------------------|
--4-4-4-4-4-4-4-4-2-2-2-2-4-4-4-4-4-4-4-4-2-2-2-2-6-6-6-6-6-6-6-6-7-7-7-7-6-6-6-|
--------------------------------------------------------------------------------|
--------------------------------------------------------------------------------|


  T T T T T T T T T T T T T T T T T T T T T T T T T T T T T T T T T T T T T T T
--------------------------------------------------------------------------------|
--------------------------------------------------------------------------------|
--6-6-6-6-6-6-6-6---------------------------------------------------------------|
------------------7-7-7-7-6-6-6-6-6-6-6-6-2-2-2-2-6-6-6-6-6-6-6-6-7-7-7-7-4-4-4-|
--------------------------------------------------------------------------------|
--------------------------------------------------------------------------------|


  S S S S S S S S S S S S S S S S S S S S S S S S
--------------------------------------------------|
--------------------------------------------------|
--6-L-L-L-------------6-L-------------------------|
----------4-L-4-L-L-4-----7-L-L-L-7-L---------6-L-|
--------------------------------------7-L-L-7-----|
--------------------------------------------------|


  S S S S S S S S S S S S S S S S S S S S S S S S
--------------------------------------------------|
--------------------------------------------------|
----------------------------------------------6-L-|
--7-L-L-9-7-L-6-L-L-L-----------------------------|
----------------------7-L-9-L-L-L-L-L-L-L-L-L-----|
--------------------------------------------------|


  S S S S S S S S S S S S S S S S S S S S S S S S
--------------------------------------------------|
--------------------------------------------------|
--6-L-L-L-------------6-L-------------------------|
----------4-L-4-L-L-4-----7-L-L-L-7-L---------6-L-|
--------------------------------------7-L-L-7-----|
--------------------------------------------------|


  S S S S S S S S S S S S S S S S S S S S S S S S
--------------------------------------------------|
--------------------------------------------------|
--------------------------------------------------|
--7-L-L-9-7-L-6-7-6-----6-4-L-L-L-L-L-L-L-L-L-L-L-|
--------------------9-7---------------------------|
--------------------------------------------------|


  Q    Q    Q    Q    Q    Q       E  E  E  E  E  E  Q    Q    Q
--------------------------------|-----------------------------------|
--------------------------------|-----------------------------------|
--------------------------------|-----------------------------------|
--4----L----L----6----L----L----|--7--L--L--7--L--L--6----L----L----|
--------------------------------|-----------------------------------|
--------------------------------|-----------------------------------|


  Q    Q    Q    Q    Q    Q       E  E  E  E  E  E  Q    Q    Q
--------------------------------|-----------------------------------|
--------------------------------|-----------------------------------|
--------------------------------|-----------------------------------|
--4----L----L----6----L----L----|--7--L--L--7--L--L--9----L----L----|
--------------------------------|-----------------------------------|
--------------------------------|-----------------------------------|


  E  E  E  E  E  E  E  E  E  E  E  E     E  E  E  E  E  E  E  E  E  E  E  E
--------------------------------------|--------------------------------------|
--------------------------------------|--------------------------------------|
--------------------------------------|-----------------------------4--L--L--|
--4--L--L--L--L--4--6--L--7--6--L--L--|--7--L--7--7--9--7--6--L--6-----------|
--------------------------------------|--------------------------------------|
--------------------------------------|--------------------------------------|


  E  E  E  E  E  E  E  E  E  E  E  E     E  E  E  E  E  E  E  E  E  E  E  E
--------------------------------------|--------------------------------------|
--------------------------------------|--------------------------------------|
--------------------------------------|-----------------------------4--L--L--|
--4--L--L--L--L--4--6--L--7--6--L--L--|--7--L--7--7--9--7--6--L--6-----------|
--------------------------------------|--------------------------------------|
--------------------------------------|--------------------------------------|


   S S S S S S S S S S  S S  S S S S  S S  S S S  S  S S
---------------------------------------------------------|
---------------------------------------------------------|
--11-L-L-L-------------11-L------------------------------|
-----------9-L-9-L-L-9------12-L-L-L-12-L-----------11-L-|
------------------------------------------12-L-L-12------|
---------------------------------------------------------|


   S S S  S  S S  S S S S  S S  S S S S S S S S S S  S S
---------------------------------------------------------|
---------------------------------------------------------|
----------------------------------------------------11-L-|
--12-L-L-14-12-L-11-L-L-L--------------------------------|
--------------------------12-L-14-L-L-L-L-L-L-L-L-L------|
---------------------------------------------------------|


   S S S S S S S S S S  S S  S S S S  S S  S S S  S  S S
---------------------------------------------------------|
---------------------------------------------------------|
--11-L-L-L-------------11-L------------------------------|
-----------9-L-9-L-L-9------12-L-L-L-12-L-----------11-L-|
------------------------------------------12-L-L-12------|
---------------------------------------------------------|


   S S S  S  S S  S S S S  S S  S S S S S S S S S S S S
--------------------------------------------------------|
--------------------------------------------------------|
--------------------------------------------------------|
--12-L-L-14-12-L-11-L-L-L-------------------------------|
--------------------------12-L-14-L-L-L-L-L-L-L-L-L-L-L-|
--------------------------------------------------------|


  S S S S S S S S S S S S S S S S S S S S S S S S
--------------------------------------------------|
--------------------------------------------------|
--------------------------------------------------|
--------------------------------------9-L---------|
--9-L---------9-L---------9-L---------7-L-7-7-7-7-|
--7-L-7-7-7-7-7-L-7-7-7-7-7-L-7-7-7-7-------------|


  S S S S S S S S S S S S S S S S S S S S S S S S
--------------------------------------------------|
--------------------------------------------------|
--------------------------------------------------|
--------------------------------------9-L---------|
--9-L---------9-L---------9-L---------7-L-7-7-7-7-|
--7-L-7-7-7-7-7-L-7-7-7-7-7-L-7-7-7-7-------------|


  S S S S S S S S S S S S S S S S S S S S S S S S
--------------------------------------------------|
--------------------------------------------------|
--------------------------------------------------|
--------------------------------------9-L---------|
--9-L---------9-L---------9-L---------7-L-7-7-7-7-|
--7-L-7-7-7-7-7-L-7-7-7-7-7-L-7-7-7-7-------------|


  S S S S S S S S S S S S S S S S S S S S S S S S
--------------------------------------------------|
--------------------------------------------------|
--------------------------------------------------|
--------------------------------------9-L---------|
--9-L---------9-L---------9-L---------7-L-7-7-7-7-|
--7-L-7-7-7-7-7-L-7-7-7-7-7-L-7-7-7-7-------------|


  E  E  E  E  E  E  E  E  E  E  E  E     E  E  E  E  E  E  E  E  E  E  E  E
--------------------------------------|--------------------------------------|
--------------------------------------|--------------------------------------|
--------------------------------------|--------------------------------------|
--------------------------------------|--------------------------------------|
--9--------9--------9--------9--------|--9--------9--------9--------5--4--0--|
--------------------------------------|--------------------------------------|


  S S S S S S S S S S S S S S S S S S S S S S S S
--------------------------------------------------|
--------------------------------------------------|
--------------------------------------------------|
--------------------------------------------------|
--9-L---------9-L---------9-L---------5-L-5-4-----|
--7-L-7-7-7-7-7-L-7-7-7-7-7-L-7-7-7-7---------5-L-|


  S S S S S S S S S S S S S S S S S S S S S S S S
--------------------------------------------------|
--------------------------------------------------|
--------------------------------------------------|
--------------------------------------------------|
--9-L---------9-L---------9-L---------5-L-5-4-----|
--7-L-7-7-7-7-7-L-7-7-7-7-7-L-7-7-7-7---------5-L-|


  S S S S S S S S S S S S S S S S S S S S S S S S
--------------------------------------------------|
--------------------------------------------------|
--------------------------------------------------|
--------------------------------------------------|
--9-L---------9-L---------9-L---------5-L-5-4-----|
--7-L-7-7-7-7-7-L-7-7-7-7-7-L-7-7-7-7---------5-L-|


  S S S S S S S S S S S S S S S S S S S S S S S S
--------------------------------------------------|
--------------------------------------------------|
--------------------------------------------------|
--------------------------------------------------|
--9-L---------9-L---------9-L---------5-L-5-4-----|
--7-L-7-7-7-7-7-L-7-7-7-7-7-L-7-7-7-7---------5-L-|


  Q    Q    Q     Q    Q    Q        Q    Q    Q     Q    Q    Q
---------------------------------|----------------------------------|
---------------------------------|----------------------------------|
---------------------------------|----------------------------------|
---------------------------------|----------------------------------|
--9---------L----11---------L----|--12---------L----11---------L----|
--7----L----L-----9----L----L----|--10----L----L-----9----L----L----|


  Q    Q    Q     Q    Q    Q        Q    Q    Q     Q    Q    Q
---------------------------------|----------------------------------|
---------------------------------|----------------------------------|
---------------------------------|----------------------------------|
---------------------------------|----------------------------------|
--9---------L----11---------L----|--12---------L----11---------L----|
--7----L----L-----9----L----L----|--10----L----L-----9----L----L----|


  S S S S S S S S S S S S S S S S S S S S S S S S
--------------------------------------------------|
--------------------------------------------------|
--6-L---------------------------------------------|
------7-L-6-L-4-L-6-L-7-L-9-L-7-L-6-L---------6-L-|
--------------------------------------7-L-9-L-----|
--------------------------------------------------|


  S S S S S S S S S S S S S S S S S S S S S S S S
--------------------------------------------------|
--------------------------------------------------|
--------------------------------------------------|
--9-L-7-L-6-L---------6-L-9-L-7-L-6-L-4-L-L-L-L-L-|
--------------7-L-9-L-----------------------------|
--------------------------------------------------|


  S S S S S S S S S S S S S S S S S S S S S S S S
--------------------------------------------------|
--------------------------------------------------|
--6-L---------------------------------------------|
------7-L-6-L-4-L-6-L-7-L-9-L-7-L-6-L---------6-L-|
--------------------------------------7-L-9-L-----|
--------------------------------------------------|


  S S S S S S S S S S S S S S S S S S S S S S S S
--------------------------------------------------|
--------------------------------------------------|
--------------------------------------------------|
--9-L-7-L-6-L---------6-L-7-L-9-L-6-L-4-L-L-L-L-L-|
--------------7-L-9-L-----------------------------|
--------------------------------------------------|


  T T T T T T T T T T T T T T T T T T T T T T T T T T T T T T T T T T T T T T T
--------------------------------------------------------------------------------|
--------------------------------------------------------------------------------|
--------------------------------------------------------------------------------|
--4-4-4-4-4-4-4-4-2-2-2-2-4-4-4-4-4-4-4-4-2-2-2-2-6-6-6-6-6-6-6-6-7-7-7-7-6-6-6-|
--------------------------------------------------------------------------------|
--------------------------------------------------------------------------------|


  T T T T T T T T T T T T T T T T T T T T T T T T T T T T T T T T T T T T T T T
--------------------------------------------------------------------------------|
--------------------------------------------------------------------------------|
--------------------------------------------------------------------------------|
--7-7-7-7-7-7-7-7-9-9-9-9-6-6-6-6-6-6-6-6-2-2-2-2-6-6-6-6-6-6-6-6-7-7-7-7-4-4-4-|
--------------------------------------------------------------------------------|
--------------------------------------------------------------------------------|


  T T T T T T T T T T T T T T T T T T T T T T T T T T T T T T T T T T T T T T T
--------------------------------------------------------------------------------|
--------------------------------------------------------------------------------|
--------------------------------------------------------------------------------|
--4-4-4-4-4-4-4-4-2-2-2-2-4-4-4-4-4-4-4-4-2-2-2-2-6-6-6-6-6-6-6-6-7-7-7-7-6-6-6-|
--------------------------------------------------------------------------------|
--------------------------------------------------------------------------------|


  T T T T T T T T T T T T T T T T T T T T T T T T T T T T T T T T T T T T T T T
--------------------------------------------------------------------------------|
--------------------------------------------------------------------------------|
--6-6-6-6-6-6-6-6---------------------------------------------------------------|
------------------7-7-7-7-6-6-6-6-6-6-6-6-2-2-2-2-6-6-6-6-6-6-6-6-7-7-7-7-4-4-4-|
--------------------------------------------------------------------------------|
--------------------------------------------------------------------------------|


  T T T T T T T T T T T T T T T T T T T T T T T T T T T T T T T T T T T T T T T
--------------------------------------------------------------------------------|
--------------------------------------------------------------------------------|
--------------------------------------------------------------------------------|
--4-4-4-4-4-4-4-4-2-2-2-2-4-4-4-4-4-4-4-4-2-2-2-2-6-6-6-6-6-6-6-6-7-7-7-7-6-6-6-|
--------------------------------------------------------------------------------|
--------------------------------------------------------------------------------|


  T T T T T T T T T T T T T T T T T T T T T T T T T T T T T T T T T T T T T T T
--------------------------------------------------------------------------------|
--------------------------------------------------------------------------------|
--------------------------------------------------------------------------------|
--7-7-7-7-7-7-7-7-9-9-9-9-6-6-6-6-6-6-6-6-2-2-2-2-6-6-6-6-6-6-6-6-7-7-7-7-4-4-4-|
--------------------------------------------------------------------------------|
--------------------------------------------------------------------------------|


  T T T T T T T T T T T T T T T T T T T T T T T T T T T T T T T T T T T T T T T
--------------------------------------------------------------------------------|
--------------------------------------------------------------------------------|
--------------------------------------------------------------------------------|
--4-4-4-4-4-4-4-4-2-2-2-2-4-4-4-4-4-4-4-4-2-2-2-2-6-6-6-6-6-6-6-6-7-7-7-7-6-6-6-|
--------------------------------------------------------------------------------|
--------------------------------------------------------------------------------|


  T T T T T T T T T T T T T T T T T T T T T T T T T T T T T T T T T T T T T T T
--------------------------------------------------------------------------------|
--------------------------------------------------------------------------------|
--6-6-6-6-6-6-6-6---------------------------------------------------------------|
------------------7-7-7-7-6-6-6-6-6-6-6-6-2-2-2-2-6-6-6-6-6-6-6-6-7-7-7-7-4-4-4-|
--------------------------------------------------------------------------------|
--------------------------------------------------------------------------------|


  E  E  E  E  E  E  E  E  E  E  E  E     E  E  E  E  E  E  E  E  E  E  E  E
--------------------------------------|--------------------------------------|
--------------------------------------|--------------------------------------|
--------------------------------------|-----------------------------4--L--L--|
--4--L--L--L--L--4--6--L--7--6--L--L--|--7--L--7--7--9--7--6--L--6-----------|
--------------------------------------|--------------------------------------|
--------------------------------------|--------------------------------------|


  E  E  E  E  E  E  E  E  E  E  E  E     E  E  E  E  E  E  E  E  E  E  E  E
--------------------------------------|--------------------------------------|
--------------------------------------|--------------------------------------|
--------------------------------------|-----------------------------4--L--L--|
--4--L--L--L--L--4--6--L--7--6--L--L--|--7--L--7--7--9--7--6--L--6-----------|
--------------------------------------|--------------------------------------|
--------------------------------------|--------------------------------------|


  S S S S S S S S S S S S S S S S S S S S S S S S
--------------------------------------------------|
--------------------------------------------------|
--6-L-L-L-------------6-L-------------------------|
----------4-L-4-L-L-4-----7-L-L-L-7-L---------6-L-|
--------------------------------------7-L-L-7-----|
--------------------------------------------------|


  S S S S S S S S S S S S S S S S S S S S S S S S
--------------------------------------------------|
--------------------------------------------------|
----------------------------------------------6-L-|
--7-L-L-9-7-L-6-L-L-L-----------------------------|
----------------------7-L-9-L-L-L-L-L-L-L-L-L-----|
--------------------------------------------------|


  S S S S S S S S S S S S S  S S S S S S S S S S S
---------------------------------------------------|
---------------------------------------------------|
--6-L-L-L-------------6-L--------------------------|
----------4-L-4-L-L-4-----7b-L-L-9-7-L---------6-L-|
---------------------------------------7-L-L-7-----|
---------------------------------------------------|


  S S S S S S S S S S S S S S S S S S S S S S S S
--------------------------------------------------|
--------------------------------------------------|
----------------------------------------------6-L-|
--7-L-L-9-7-L-6-L-L-L-----------------------------|
----------------------7-L-9-L-L-L-L-L-L-L-L-L-----|
--------------------------------------------------|


  S S S S S S S S S S S S S  S S S S S S S S S S S
---------------------------------------------------|
---------------------------------------------------|
--6-L-L-L-------------6-L--------------------------|
----------4-L-4-L-L-4-----7b-L-L-9-7-L---------6-L-|
---------------------------------------7-L-L-7-----|
---------------------------------------------------|


  S S S S S S S S S S S S S S S S S S S S S S S S
--------------------------------------------------|
--------------------------------------------------|
----------------------------------------------6-L-|
--7-L-L-9-7-L-6-L-L-L-----------------------------|
----------------------7-L-9-L-L-L-L-L-L-L-L-L-----|
--------------------------------------------------|


  S S S S S S S S S S S S S  S S S S S S S S S S S
---------------------------------------------------|
---------------------------------------------------|
--6-L-L-L-------------6-L--------------------------|
----------4-L-4-L-L-4-----7b-L-L-9-7-L---------6-L-|
---------------------------------------7-L-L-7-----|
---------------------------------------------------|


  S S S S S S S S S S S S S S S S S S S S S S S S
--------------------------------------------------||
--------------------------------------------------||
--------------------------------------------------||
--7-L-L-9-7-L-6-L-L-L-----------------------------||
----------------------7-L-9-L-L-L-L-L-L-L-L-L-L-L-||
--------------------------------------------------||


Duration Legend
---------------
W - whole
H - half
Q - quarter
E - 8th
S - 16th
T - 32nd
X - 64th
. - note dotted
|-n-|  - n-tuplets


Tablature Legend
----------------
L - tied note
x - dead note
g - grace note
(n) - ghost note
> - accentuded note
NH - natural harmonic
AH - artificial harmonic
TH - tapped harmonic
SH - semi harmonic
PH - pitch harmonic
h - hammer on
p - pull off
b - bend
br - bendRelease
pb - preBend
pbr - preBendRelease
brb - bendReleaseBend
n/ - tremolo bar dip
n - tremolo bar dive
-/n - tremolo bar Release up
/n - tremolo bar inverted dip
/n - tremolo bar return
-n - tremolo bar Release down
S - shift slide
s - legato slide
/ -  slide into from below or out of upwards
 -  slide into from above or out of downwards
~ - vibrato
W - wide vibrato
tr - trill
TP - tremolo picking
T - tapping
S - slap
P - pop
< - fade in
^ - brush up
v - brush down

ĂŽnscrie-te la newsletter


Join the ranks ! LIKE us on Facebook