Night Stalker Tab - Enthroned






Band- Enthroned
Song- Night Stalker

Tuning: Standard



e|------------------------------------------------------|
B|------------------------------------------------------|
G|------------------------------------------------------|
D|--2----2---4-5----5-5--5------------7----7-5-2--------|
A|--0----0---2-3----3-3--5----5-5-----5----5-3-2--------|
E|-----------------------3----3-3-----------------------|



e|------------------------------------------------------|
B|------------------------------------------------------|
G|------------------------------------------------------|
D|--2----2---4-5----5-5--5------------7----7-5-2--------|
A|--0----0---2-3----3-3--5----5-5-----5----5-3-2--------|
E|-----------------------3----3-3-----------------------|
 |                                                      |
 |                                                      |
e|------------------------------------------------------|
B|------------------------------------------------------|
G|------------------------------------------------------|
D|-------






Like us on Facebook