Black Breath Bass Tab - Entombed






Band- Entombed
Song- Black Breath

riff0 (intro)
Eb|----------------|----------------|
Bb|----------------|----------------|
 F|--------5-0---4-|--------5-0---4-|
 C|-0-0--------3---|-0-0--------3---|

riff1
Eb|----------------|-----------------|
Bb|----------------|-----------------|
 F|-----------5--6-|-------- 5-0---4-|
 C|-0-00000000-00--|-0-000000----3---|

riff2
Eb|---------------------|---------------------|
Bb|---------------------|---------------------|
 F|------6h7------6-0-0-|------6h7------6-0-0-|
 C|-0-00-----0000-------|-0-00-----0000-------|

riff3
Eb|-----------------|-----------------|
Bb|---------3-3-0-0-|---------3-3-2-2-|
 F|-----2-2---------|-----2-2---------|
 C|-0-0-------------|-0-0-------------|

riff4
Eb|-------------------|
Bb|-------------------|
 F|-------------------|
 C|-0-00-1-1-0000-1-3-|

ending
Eb|-----|
Bb|-----|
 F|-----|
 C|-0/3-|

song order:
   riff0 x1 (play with drums and rythm guitar)
   riff1 x6
   riff2 x8
   riff3 x2
   riff2 x4
   riff3 x2
through guitar solo:
   riff2 x2
   riff4 x4
then:
   riff4 x4
   riff3 x4
   ending 






Like us on Facebook